Nirvana

Rape Me

Nirvana

581 exibições
Tune down half step (Eb,Ab,Db,Gb)



This song is really eazy there are basically only three parts.

Also the bass doesn't play during the 1st and 3rd verses.



This frist part is played underneath the verses and chorus.

|--------------------------|--------------------------|-------------------

|--------------------------|--------------------------|-------------------

|--------------3--3--3--3--|--------------------------|-------------------

|--5-----5--5--------------|--0-----0--0--3--3--3--0--|-------------------

        



            

-----------------------|--------------------------|-----------------------

-----------------------|--------------5-----5-----|-----------------------

------------3--3/5--5--|--7-----7--7-----7-----7--|-----------------------

2-----2--2-------------|--------------------------|-----------------------

   



Second part is the bridge 

-------------------------|--------------------------|---------------------

----------------------2--|--------------------------|---------------------

-4-----4--4--4--2--4-----|--0-----0--0--------------|---------------------

-------------------------|--------------3--2--1--0--|---------------------

 



Third part is before the 3rd verse after the bridge

------------------------|-------------------------|------------------|

------------------------|-------------------------|------------------|

------------------------|-------------------------|------------------|

1--1--1--1--1--1--1--1--|--3--3--3--3--3--3--3--5/|--12--------------|

_______________________________________________________
Contribuição: Alker(ratherguns@bol.com.br)


Enviada por Sem inscrição
Nº de acordes: