Nazareth

Hair Of The Dog

Nazareth

105 exibições
Transcribed by Kyle Plesniak

Work out the timing on your own

Main Riff E

G----------------------||
D-------------5-------*||
A---------2-7---7-5-7-*||
E-0-0-3-4--------------||

Main Riff A

G-------------5--------||
D---------2-7---7-5-7-*||
A-0-0-3-4-------------*||
E----------------------||

Chorus

G--------------------||
D-------------------*||
A-----------5-5-7-7-*||
E-0--3-5-0-----------||

Interlude Riff

G-----------|-----------|------------|-----------||
D-----------|-----------|------------|----------*||
A-----------|-----------|------------|----5-3-2-*||
E-0--3-3-5-5|-0---------|-0--3-3-5-5-|-0---------||

Outro Chorus

G------------------||
D-----------------*||
A-7-7-7-7-7-7-7-7-*||
E------------------||

Riff Order

Main Riff E 6 times
Main Riff A 2 times
Main Riff E 2 times
Chorus 2 times
Main Riff E 6 times
Main Riff A 2 times
Main Riff E 2 times
Chorus 2 times
Some rests go here
Interlude Riff 2 times
Main Riff E 2 times
Outro Chrous repeat and fade

This is basically the same as the guitar tab already posted, 
except for the end of the song


Enviada por Sem inscrição
Nº de acordes: