Sem imagem

May 16th

Lagwagon

56 exibições
Intro 1: x1
G:---------------------
D:---------------------
A:-5555-2222------5555-
E:-----------3333------

Intro 2: x2
G:-----------------------------------------------------------------------
D:-----------------------------------------------------------------------
A:-55555555555-22222222222-----------------------------------------------
E:-------------------------333333333333-5555555555555--------------------

Verso: x2
G:-----------------------------------------------------------------------
D:-------------------------------------------0---------------------------
A:-555555555-222222222-5555555555--------------4-------------------------
E:--------------------------------2222222222------33333333333-55555555555

G:-----------------------------------------------------------------------
D:----------------------------0------------------------------------------
A:-55555555555555---------------4----------------------------------------
E:----------------555555555555----33333333333-5555555555555--------------

Pre-refrão: x1
G:---------------
D:---------------
A:---------------
E:--5-5-5-5-5----

Refrão:
G:----------------------------------------------------------------------------------
D:--------------------------------------------5----------2--------------------------
A:-555555-444444-222222-000000--------------5---444444-2---000000-------------------
E:-----------------------------33333333-555-----------------------33333333--555-----

Ponte: x1
G:-----------------------------------------------------------------------------
D:-----------------------------------------------------------------------------
A:-555555--------222222--------555555--------2222222222222---------------------
E:--------555555--------333333--------555555-----------------------------------

Verso:x1

Refrão:                                                   2X
G:-----------------------------------------|-----------------------------------------
D:-----------------------------------------|---5----------2--------------------------
A:-555555-444444-222222-000000-------------|-5---444444-2---000000-------------------
E:-----------------------------33333333-555|-----------------------33333333--555-----

Interlude: x1
G:-----------------------------------------------------------------------
D:-----------------------------------------------------------------------
A:-12121212121212121212121212121212121212121212121212121212121212121212--
E:-----------------------------------------------------------------------

G:-----------------------------------------------------------------------
D:-----------------------------------------------------------------------
A:-5555---5555-----------------------------------------------------------
E:---------------3333---5555---------------------------------------------

Guitar Solo: x2
G:-----------------------------------------------------------------------
D:-----------------------------------------------------------------------
A:-55555555-22222222-----------------------------------------------------
E:-------------------333333333-555555555---------------------------------

Final:
G:--------------------------------
D:--------------------------------
A:-5555-----2222------5555------2-
E:-----5555------3333------5555---
 


Enviada por Sem inscrição
Nº de acordes: