Jason Mraz

I'm Yours

Jason Mraz

Compartilhar:

1:04*

G|-----------------------------------------------------------------|
D|------------------4-4-4-4-4-4-6-6-6-6-6-4-2-2-2-2-2-2-4----------|
A|--2-2-2-2-2-2----------------------------------------------------|
E|-----------------------------------------------------------------|

G|-----------------------------------------------------------------|
D|------------------4-4-4-4-4-4-6-6-6-6-6-4-2-2-2-2-2-2--3---------|
A|--2-2-2-2-2-2----------------------------------------------------|
E|-----------------------------------------------------------------|

G|-----------------------------------------------------------------|
D|------------------4-4-4-4-4-4-6-6-6-6-6-4-2-2-2-2-2-2-4----------|     X2
A|--2-2-2-2-2-2----------------------------------------------------|		
E|-----------------------------------------------------------------|
*1:58*
G|-----------------------------------------------------------------|
D|-------------4-4-4-4-6-6-6-6-4-4-4-4-2-2-2-2-2-2-2-2-------------|
A|--2-2-2-2--------------------------------------------------------|
E|-----------------------------------------------------------------|

G|-----------------------------------------------------------------|
D|--3-3-3-3/0------------4-4-4-4-6-6-6-6-4-4-4-4-2-2-2-2-2---------|
A|----------------2-2-2-2------------------------------------------|
E|-----------------------------------------------------------------|
			*bass out @ 2:24*
G|-----------------------------------------------------------------|
D|--2-2-2-3-3-3-3/0------------------------------------------------|
A|-----------------------------------------------------------------|
E|-----------------------------------------------------------------|
	* bass in @ 3:02*
G|-----------------------------------------------------------------|
D|------------------4-4-4-4-4-4-6-6-6-6-6-4-2-2-2-2-2-2-4----------|
A|--2-2-2-2-2-2----------------------------------------------------|
E|-----------------------------------------------------------------|

G|-----------------------------------------------------------------|
D|------------------4-4-4-4-4-4-6-6-6-6-6-4-2-2-2-2-2-2--3---------|
A|--2-2-2-2-2-2----------------------------------------------------|
E|-----------------------------------------------------------------|
	play till song fades out
G|-----------------------------------------------------------------|
D|------------------4-4-4-4-4-4-6-6-6-6-6-4-2-2-2-2-2-2-4----------|
A|--2-2-2-2-2-2----------------------------------------------------|
E|-----------------------------------------------------------------|
  • Enviada por: Sem inscrição
  • Exibições: 1.515