Ira!

Mudança De Comportamento

Ira!

346 exibições
Verse:
G:---------------------------------------------------------------
D:----7-------7---------------------------------------4---2------
A:-5----5-4-4---4-3-3-3-3---3-3-3---------------------------4-0--
E:--------------------------------3--3-3-3-3-3-3-2-2-------------

G:---------------------------------------------------------------------
D:----7-------7--------------------------------------------------------
A:-5----5-4-4---4-3-3-3-3---3-3-3--------------------------------------
E:--------------------------------3--3-3-3-3-3-3-2-2-2-2--2-2-2--5--5--

Chorus:
G:--------------------------------------------------------------
D:----5--4--2-0-4----5--4--2-0-4----4--2--0---2----4--2--0---2--
A:------------------------------------------4--------------4----
E:-3--------------3--------------2--------------2---------------

G:--------------------------------------------------------------
D:----5--4--2-0-4----5--4--2-0-4--------------------------------
A:-------------------------------5--5---5--5--5-5-5--5--5-------
E:-3--------------3---------------------------------------------


Enviada por Sem inscrição
Nº de acordes: