Standard Tuning(EADG)
Common Time(4/4)

VERSE/SOLO:
|----------|---------|---------|---------|---------|---------|
|*---------|---------|---------|---------|---------|---------|
|*---------|---------|-5-------|---------|-5-------|---------|
|--5-------|-4-------|---------|-2---0---|---------|---------|
   1 2 3 4   1 2 3 4   1 2 3 4   1 2 3 4   1 2 3 4   1 2 3 4

|---------|----------|
|---------|---------*|
|-5-------|---------*|
|---------|----------|
  1 2 3 4   1 2 3 4

CHORUS:
|------------------|-----------------|-----------------|
|*-----------------|-----------------|-----------------|
|*-----------------|-----------------|-5-5-5-5-5-5-5-5-|
|--2-2-2-2-2-2-2-2-|-0-0-0-0-0-0-0-0-|-----------------|
   1 & 2 & 3 & 4 &   1 & 2 & 3 & 4 &   1 & 2 & 3 & 4 &
  
               (x3)
|------------------|-----------------|-----------------|
|-----------------*|-----------------|-----------------|
|-5-5-5-5-5-5-5-5-*|-----------------|-----------------|
|------------------|-2-2-2-2-2-2-2-2-|-0-0-0-0-0-0-0-0-|
  1 & 2 & 3 & 4 &    1 & 2 & 3 & 4 &   1 & 2 & 3 & 4 &

|---------|---------|
|---------|---------|
|-5-------|---------|
|---------|---------|
  1 2 3 4   1 2 3 4


Enviada por Sem inscrição
Nº de acordes: