Verse
G|----------------------|
D|-0-2-5----------------|
A|--------2-0-----------|
E|-------------3--------|

Chorus
G|--------------------|
D|--------------------|
A|-2-0----------------|
E|------3-------------|

After First Chorus
G|-------------------------|
D|-------------------------|
A|-2-2-4-4-5---------------|
E|--------------3-3-3------|

After second Chorus and other breaks in the song
G|--------------------------|
D|--------------------------|
A|-3-4-5-2-0----------------|
E|--------------3-----------|

Bridge
G|-------------------------------------------|
D|-------------------------------------------|
A|-2-2-2-2*-4-4-4-4*--4-5--------------------|
E|--------------------------------3-3-3-3-3--|
*=pauses

Guitar Solo
G|-------------------------------------------------------------------------------------|
D|-------------------------------------------------------------------------------------|
A|-2-2-2-2-2-2-2-2-2-------------------------------------------------------------------|
E|-------------------------3-3-3-3-3-3-3-3-2-2-2-2-2-2-2-2-3-3-3-3-3-3-3-3-------------|


Enviada por Sem inscrição
Nº de acordes: