Tuning: (EADG)

Intro:
G|------------------------------------------------------------|
D|------------------------------------------------------------|
A|--2-2-2---------------------------2-2-2---------------------|
E|----------5-5-5---0-0-0-0-0-0-0-----------5-5-5---0-0-0-0/--|

G|-------------------------------------------------------------------|
D|-------------------------------------------------------------------|
A|--2-2-2---------------------------2-2-2----------------------------|
E|----------5-5-5---0-0-0-0-0-0-0-----------5-5-5---0-0-0-0-0-0-0-0--|

Verse:
G|---------------------------------------------------------------------|
D|---------------------------------------------------------------------|
A|------------------7-7-7-7--2-2-2-2-----------------------------------|(X2)
E|-2-2-2-2--4-4-4-4------------------4-4-4-4--2-2-2-2--0-0-0-0-0-0-0-0-|

G|---------------------------------------------------------------------|
D|---------------------------------------------------------------------|
A|------------------7-7-7-7--2-2-2-2--------------------7-7-7-7-7-7-7--|
E|-2-2-2-2--4-4-4-4-------------------4-4-4-4--6-6-6-6-----------------|

Chorus:
G|------------------------------------------------------------|
D|------------------------------------------------------------|
A|--2-2-2---------------------------2-2-2---------------------|
E|----------5-5-5---0-0-0-0-0-0-0-----------5-5-5---0-0-0-0/--|

G|-------------------------------------------------------------------|
D|-------------------------------------------------------------------|
A|--2-2-2---------------------------2-2-2----------------------------|
E|----------5-5-5---0-0-0-0-0-0-0-----------5-5-5---0-0-0-0-0-0-0-0--|

Verse:
G|---------------------------------------------------------------------|
D|---------------------------------------------------------------------|
A|------------------7-7-7-7--2-2-2-2-----------------------------------|(X2)
E|-2-2-2-2--4-4-4-4------------------4-4-4-4--2-2-2-2--0-0-0-0-0-0-0-0-|

G|---------------------------------------------------------------------|
D|---------------------------------------------------------------------|
A|------------------7-7-7-7--2-2-2-2--------------------7-7-7-7-7-7-7--|
E|-2-2-2-2--4-4-4-4-------------------4-4-4-4--6-6-6-6-----------------|

Chorus:
G|------------------------------------------------------------|
D|------------------------------------------------------------|
A|--2-2-2---------------------------2-2-2---------------------|
E|----------5-5-5---0-0-0-0-0-0-0-----------5-5-5---0-0-0-0/--|

G|-------------------------------------------------------------------|
D|-------------------------------------------------------------------|
A|--2-2-2---------------------------2-2-2----------------------------|
E|----------5-5-5---0-0-0-0-0-0-0-----------5-5-5---0-0-0-0-0-0-0-0--|

 ---------------------------------------------------------------------

Bridge:
G|--------------------|     G|--------------------|
D|--------------------|     D|--------------------|
A|-------0---4---2----|(X4) A|--------------------|
E|----4---------------|     E|--2-2-2-2--0-0-0-0--|

G|------------------------------------------------------------|
D|------------------------------------------------------------|
A|--2-2-2---------------------------2-2-2---------------------|
E|----------5-5-5---0-0-0-0-0-0-0-----------5-5-5---0-0-0-0/--|

G|-------------------------------------------------------------------|
D|-------------------------------------------------------------------|
A|--2-2-2---------------------------2-2-2----------------------------|
E|----------5-5-5---0-0-0-0-0-0-0-----------5-5-5---0-0-0-0-0-0-0-0--|

G|---------------------------------------------------------------------|
D|---------------------------------------------------------------------|
A|------------------7-7-7-7--2-2-2-2-----------------------------------|
E|-2-2-2-2--4-4-4-4------------------4-4-4-4--2-2-2-2--0-0-0-0-0-0-0-0-|

G|---------------------------------------------------------------------|
D|---------------------------------------------------------------------|
A|------------------7-7-7-7--2-2-2-2--------------------7-7-7-7-7-7-7--|
E|-2-2-2-2--4-4-4-4-------------------4-4-4-4--6-6-6-6-----------------|

 -----------------------------------------------------------------------

Chorus:
G|------------------------------------------------------------|
D|------------------------------------------------------------|
A|--2-2-2---------------------------2-2-2---------------------|
E|----------5-5-5---0-0-0-0-0-0-0-----------5-5-5---0-0-0-0/--|

G|-------------------------------------------------------------------|
D|-------------------------------------------------------------------|
A|--2-2-2---------------------------2-2-2----------------------------|
E|----------5-5-5---0-0-0-0-0-0-0-----------5-5-5---0-0-0-0-0-0-0-0--|


Outro: ( Play this about 6 or 7 times to end song)
G|--------------------------------------|
D|--------------------------------------|
A|--2-2-2-2-----------------------------|
E|----------5-5-5-5--0-0-0-0-0-0-0-0-0--|


Enviada por Sem inscrição
Nº de acordes: