Goo Goo Dolls
INTRO 
G----------------------------------------------------------- 
D-1--111--1--111--1--111--1--111------------ 
A----------------------------------------------------------- 
E----------------------------------------------------------- 

VERSE 
G----------------------------------------------------------- 
D-111--111--111--1111-------------------------- 
A----------------------000--000--000--000------ 
E----------------------------------------------------------- 

G---------------------------------------------------------- 
D-111--111--111--1111------------------------ 
A----------------------000--000--000--000------ 
E----------------------------------------------------------- 

CHORUS 
G---------------------------------------------------------- 
D--------------------------------------------------------- 
A-----0----33-----------0---333-----------0------- 
E-1------------33---1------------3--3--1----------- 

G---------------------------------------------------------------- 
D--------------------------------------------------------------- 
A--33--------0---333-------------------------------------- 
E------3--1------------333---1--------------------------- 

BREAK 
G----------------------------------------------------------------- 
D----------------------------------------------------------------- 
A--0------------------------------------------------------------- 
E-------------------3----------------1-----------------1------- 

G----------------------------------------------------------------- 
D----------------------------------------------------------------- 
A--0------------------------------------------------------------- 
E-------------------3----------------1-----------------1------ 

G----------------------------------------------------------------- 
D----------------------------------------------------------------- 
A--0------------------------------------------------------------- 
E-------------------3----------------1-----------------1------- 

G----------------------------------------------------------------- 
D----------------------------------------------------------------- 
A--0---------------5-----0-0-0-0-0-0-2-2-2-2-2-3-3-3-3-5---- 
E-------------3-----------------------------------------------
  • Enviada por: Sem inscrição
  • Exibições: 76