Gloria

Vai Pagar Caro Por Me Conhecer

Gloria

Compartilhar:

----------------------------------------
----------------------------------------
---8//---7//--4//--5//--1//---3//--5^---
----------------------------------------

----------------------------------------
----------------------------------------
----------------------------------------
-----0-0-0-0-0-0-0-0-0-0-0-0------------

Letra
Chegou a hora e eu não vou correr
-----------------------------------------------------------------
-----------------------------------------------------------------
-----------------------------------------------------------------
---1--0--------0-0-------0--1-0-------0--0----0-3-3-3-3----------

Não tenho medo pra te entregar  
-----------------------------------------------------------------
-----------------------------------------------------------------
--------------------------------------------------------5-5-7-7--
---1--0--------0-0-------0--1-0-------0--0-----0-----------------

Minha amnésia apagou você
---------------------------------------------------------------------
---------------------------------------------------------------------
---------------------------------------------------------------------
---1--0--------0-0-------0--1-0-------0--0----0-3--3-3-3-------------

E Agora é minha vez de te falar
------------------------------------------------------------------
------------------------------------------------------------------
-------------------------------------------------------5-5-7-7----
---1--0--------0-0-------0--1-0-------0--0------------------------

Pré Refrão 
Eu não vou acreditar no
que você me diz (eu não vou!)
No que inventa para ser feliz (eu não vou!)
Nesse seu mundo que vai te
matar (eu não vou!

------------------------------------------------------------------------
------------------------------------------------------------------------
------------------------------------------------------------------------
----1--0--------0-0-------0-1-0-0-0-1-1-1-0-----------------------------

Refrão: 
       Eu cansei, (cansei)
Eu não consigo esperar você (você)
Eu paguei caro para te esquecer (esquecer)
De todos planos eu já desisti (WHOOAAHH!)
Deixei pra trás tudo que consegui


Na minha vida não vai mais entrar (entrar)
Na sua vida não vou mais passar (passar)
E se você tentar me esquecer (WHOOAAHH!)
Vai pagar caro por me conhecer

(2x)
-----------------------------------------------------------------------------
-----------------------------------------------------------------------------
-----------------------------------------------------------------------------
0-0-0-0-0-0-0-0-3-3-3-3-3-3-3-3-8-8-8-8-8-8-8-10-10-10-10-10-7-7-7-7-7-------

 1º BRIDGE – 4x 
 
----------------------------------------------
----------------------------------------------
----------------------------------------------
0-0--------0-0--------------------------------


Não venha dizer (NÃO!) o que eu
fui pra você (NÃO!)
Pois eu não vou mudar (NÃO!) meu jeito de pensar (NÃO!)

------------------------------------------------------------
------------------------------------------------------------
------------------------------------------------------------
8-8-8-8-8-8-8—0-0-0-0-0-0-3-3-3-3-3-3-3---------------------

Não venha querer (NÃO!)
tentar me convencer (NÃO!)

Pois não tenho mais tempo de te aguentar!

--------------------------------------------
--------------------------------------------
--------------------------------------------
-8-8-8-8-8-8-8—0-0-0-------0-0--------------


Solo : Base 

--------------------------------------------------------------
--------------------------------------------------------------
--------------------------------------------------------------
-8-8-8-8-8-8-8—0-0-0-0-0-0-3-3-3-3-3-3-3----------------------

-------------------------------------------------------------
-------------------------------------------------------------
-------------------------------------------------------------
-8-8-8-8-8-8-8—0-0-0-------0-0-------------------------------

                   
Refrão :

2º BRIDGE – 4 x----1º só a guitarra  o baixo entra na 2 ª 

--------------------------------------------------------
--------------------------------------------------------
--------------------------------------------------------
--------1--0--------0-0-------0--1-0-------0--0---------

Refrão :
  • Enviada por: Sem inscrição
  • Exibições: 1.136