Intro:
g|---------------------------------------------------------|
d|---------------------------------------------------------|
a|--5-5-5-5------------------------------------------------|
e|----------5-5-5-5----2-2-2-2-0-0-0-0---------------------|



Verse:
g|---------------------------------------------------------|
d|---------------------------------------------------------|
a|--5-5r---------------------------------------------------|
e|----------5-5r----2-2r---0--4-5-4-0----------------------|



Pre-Chorus:
g|---------------------------------------------------------|
d|---------------------------------------------------------|
a|--5r-5r--------------------------------------------------|
e|----------5-5r----2-2r---0-0-0-0-------------------------|



Chorus:
g|---------------------------------------------------------|
d|---------------------------------------------------------|
a|--5---5-5------------------------------------------------|
e|----------5---5-5-2---2-2-0---0-0------------------------|



Pre-Verse:
g|---------------------------------------------------------|
d|---------------------------------------------------------|
a|--5-5-------------7r-------------------------------------|
e|-------5r----2-2-----------------------------------------|



Verse:
g|---------------------------------------------------------|
d|---------------------------------------------------------|
a|--5-5r---------------------------------------------------|
e|----------5-5r----2-2r---0--4-5-4-0----------------------|



Pre-Chorus:
g|---------------------------------------------------------|
d|---------------------------------------------------------|
a|--5r-5r--------------------------------------------------|
e|----------5-5r----2-2r---0-0-0-0-------------------------|



Chorus:
g|---------------------------------------------------------|
d|---------------------------------------------------------|
a|--5---5-5------------------------------------------------|
e|----------5---5-5-2---2-2-0---0-0------------------------|



Pre-Verse:
g|---------------------------------------------------------|
d|---------------------------------------------------------|
a|--5-5-------------7r-------------------------------------|
e|-------5r----2-2-----------------------------------------|



Bridge:
g|---------------------------------------------------------|
d|---------------------------------------------------------|
a|--5-5-5--------------------------------------------------|
e|--------2-5-5-5-5------2-2-2-0-4-54-2-0------------------|



Chorus:
g|---------------------------------------------------------|
d|---------------------------------------------------------|
a|--5---5-5------------------------------------------------|
e|----------5---5-5-2---2-2-0---0-0------------------------|



End:
g|---------------------------------------------------------|
d|---------------------------------------------------------|
a|--5-5-------------7r-------------------------------------|
e|-------5r----2-2-----------------------------------------|


Enviada por Sem inscrição
Nº de acordes: