Foo Fighters

Generator

Foo Fighters

175 exibições
Intro
g|-------------------|
d|-------------------|
a|-----0~------------|
e|-0-0-----------0-0-|

Pre Verse 1
g|------------------------------------------|
d|------------------------------------------|
a|-0-0-0-0-0-0-0-0--------------------------|
e|-----------------0-0--2-2-2-2-2-2-2-2-0-0-|

g|------------------------------------------------------|
d|------------------------------------------------------|
a|-0-0-0-0-0-0-0-0----------------------5-5-5-5-5-5-5-5-|
e|-----------------0-0--2-2-2-2-2-2-2-2-----------------|

Verse 1
g|-------------------------------------------------------|
d|-------------------------------------------------------|
a|-0--00-------------------5--55---5-7-8-7-5-5---3-3-2-1-|
e|--------0--2---22--0-0---------------------------------|

g|----------------------------------------------------------|
d|----------------------------------------------------------|
a|-0--00-------------------5--55---4-2-4-5-4-2--4-2-4-5-4-2-|
e|--------0--2---22--0-0------------------------------------|

Pre Verse 2
g|------------------------------------------|
d|------------------------------------------|
a|-0-0-0-0-0-0-0-0--------------------------|
e|-----------------0-0--2-2-2-2-2-2-2-2-0-0-|

g|------------------------------------------------------|
d|------------------------------4-2-4-------------0-2-4-|
a|-0-0-0-0-0-0-0-0--------------------2-4-2-0-2-4-------|
e|-----------------0-0--2-2-2-2-------------------------|

Verse 2
g|----------------------------------------------------------|
d|----------------------------------------------------------|
a|-0---00------------------5--55---4-2-4-5-4-2--4-2-4-5-4-2-|
e|--------0--2---22--0-0------------------------------------|

g|-------------------------------------------------------------------|
d|-------------------------------------------------------------------|
a|-0---00--------------0-2-4-5----5/9-7-5---4-2-4-5-4-2--4-2-4-5-4-2-|
e|--------0--2---22--4-----------------------------------------------|

Chorus
g|--------------------------------------------------------------|
d|------------------------------------------------------------4-|
a|-0-0-0-0-0-0-0-0-0--8-8-8-8-8-8-8-8-9-9-9-9----------4-5--7---|
e|--------------------------------------------5-7-55-7----------|

g|--------------------------7----7---------------------------|
d|-5--5/7--7/9--9/11------7--7h9---9-7-----------------------|
a|-------------------5--5--------------7-0--5--7-8--7-5------|
e|-------------------------------------------------------0-0-|

Pre Verse 3
g|------------------------------------------|
d|------------------------------------------|
a|-0-0-0-0-0-0-0-0--------------------------|
e|-----------------0-0--2-2-2-2-2-2-2-2-0-0-|

g|------------------------------------------------------|
d|------------------------------4-2-4-----0-2-4-2-0-----|
a|-0-0-0-0-0-0-0-0--------------------2-4-----------4-2-|
e|-----------------0-0--2-2-2-2-------------------------|

Verse
g|------------------------------------------------------------|
d|------------------------------------------------------------|
a|-0--00---------------------5---55--4-2-4-5-4-2--4-2-4-5-4-2-|
e|--------0--2---22-----0-0-----------------------------------|

g|-------------------------------------------------------------------|
d|-------------------------------------------------------------------|
a|-0--00---------------0-2-4-5----5/9-7-5---4-2-4-5-4-2--4-2-4-5-4-2-|
e|--------0--2---22---4----------------------------------------------|

Solo
g|---------------------|
d|---------------------| (x5)
a|-77-5-4-2------2-4---|
e|----------54-5-----0-|

g|--------------------|
d|--------------------|
a|-777-5-4-2----------|
e|----------54-5-7-00-|

Outro
g|--------------------------------------------|
d|--------------------------------------------|
a|-0-0-0-0-0-0-0-0-----0-0-0-0-0-0-0-0------0-|
e|-----------------0-0------------------0-0---|


Enviada por Sem inscrição
Nº de acordes: