Foo Fighters

Exhausted

Foo Fighters

70 exibições
(Drop D Tuning) 
 
 
Verse (Play 3 times after guitar intro) 
G|--------------------------------------------------------------------------------------| 
D|--------------------------------------------------------------------------------------| 
A|--------------5-2--2-2--2-2-3-------------3-0--0-0--0-0--3-------------3-0--0-0--0-0--| 
D|--0--0-0--0-0-----------------3--3-3--3-3------------------3--3-3--3-3----------------| 
 
 
End Of Verse/Pre-Chorus 
G|-------------------------------------------------------------------| 
D|-------------------------------------------------------------------| 
A|--1-1-1-1-1-1-1-1-0-0-0-0-0-0-0-0-2-2-2-2-2-2-2-2-2-2-2-2-2-2-2-2--| 
D|-------------------------------------------------------------------| 
 
 
Chorus 
G|-----------------------------| 
D|-----------------------------| 
A|-----------------------------| 
D|--0-3-5-7-3-0-3-0-3-0-4-5-7--| 
 
 
Bridge (Played once after 1st interlude & long feedback) 
G|-------------------------------------------------------------------------------------------| 
D|-------------------------------------------------------7-7-3-3-3-3-3-3-3-3-7-7-7-7-7-7-7-7-| 
A|-------------5-2--2-2--2-2-3-------------3-7-7-7-7-7-7-------------------------------------| 
D|-0--0-0--0-0-----------------3--3-3--3-3---------------------------------------------------| 
 
 
Outro 
G|-------------------------------------------------------| 
D|-------------------------------------------------------| 
A|-------------5-2--2-2--2-2-3-------------3-0--0-0--0-0-| 
D|-0--0-0--0-0-----------------3--3-3--3-3---------------| 
 
G|-------------------------------------------------------| 
D|-------------------------------------------------------| 
A|-3-------------3-0--0-0--0-0--------------5-2--2-2--2--| 
D|---3--3-3--3-3----------------0--0-0--0-0--------------| 
 
G|-------------------------------------------------------| 
D|-------------------------------------------------------| 
A|-2-3-------------3-0--0-0--0-0-3-------------3-0--0-0--| 
D|-----3--3-3--3-3-----------------3--3-3--3-3-----------| 
 
G|-------------------------------------------------------| 
D|-------------------------------------------------------| 
A|-0-0--1-1-1-1-1-1-1-1-0-0-0-0-0-0-0-0-2-2-2-2-2-2-2-2--| 
D|-------------------------------------------------------| 
 
G|-------------------------------------------------------| 
D|-------------------------------------------------------| 
A|-2-2-2-2-2-2-2-2-------------5-2--2-2--2-2-3-----------| 
D|-----------------0--0-0--0-0-----------------3--3-3--3-| 
 
G|----------------------------------------------| 
D|----------------------------------------------| 
A|---3-0--0-0--0-0-3-------------3-0--0-0--0-0--| 
D|-3-----------------3--3-3--3-3----------------|


Enviada por Sem inscrição
Nº de acordes: