Foo Fighters

Everlong

Foo Fighters

440 exibições
-=main verse=-
G|----------------------------------------------------------------
D|----------------------------------------------------------------
A|---------------------2-2-2-2-2-2-2-2-2-2-----------2-2-2-2-2-2--
D|-0-0-0-0-0-0-0-0-0-0---------------------5-5-5-5-5--------------
    hello           ive waited here for you       everlong

-=chorus=-
G|----------------------------------------------------------------
D|----------------------------------------------------------------
A|----------------------------------------------------------------
D|-0-0-0--0-0-0--0-0-0--0-0-0--0-0-0--7-7-7-7-7-7----0-0-0--0-0-0
                                                and i wonder 
G|----------------------------------------------------------------
D|----------------------------------------------------------------
A|----------------------------------------------------------------
D|-0-0-0--0-0-0--0-0-0--7-7-7-7-7-7---0-0-0--0-0-0--0-0-0--0-0-0--
                        when i sing a long with you

G|----------------------------------------------------------------
D|----------------------------------------------------------------
A|--------2--2--2----2---2---2------------------------------------
D|-0-0-0--------------------------5-5-5-5-5-5--0-0-0--0-0-0--0-0-0
          if everything could ever be this real forever

G|----------------------------------------------------------------
D|----------------------------------------------------------------
A|-------2---2-2----2-2--2----------------------------------------
D|-0-0-0-------------------------5-5-5-5-5-5--0-0-0--0-0-0--0-0-0-
          if everything could ever be this good again
G|----------------------------------------------------------------
D|----------------------------------------------------------------
A|-------2--2--2----2---2---2--------------------5--5--5---5--5--5
D|-0-0-0----------------------------5-5-5-5-5-5-------------------
             the only thing ill ever ask of you youve got to promise

G|----------------------------------------------------------------
D|----------------------------------------------------------------
A|--0-0-0-0-0-0--------------------------------------------------------
D|---------------5-5-5--5-5-5--5-5-5--5-5-5-----------------------------------
   not to stop   when i say when


Enviada por Sem inscrição
Nº de acordes: