Foo Fighters

Down In The Park

Foo Fighters

66 exibições
Tabbed by: Maz (rivers_jr@limp.co.uk)


Intro/Verse:
G|--------------------------------------------------------------------|
D|--------------------------------------------------------------------|
A|--------------------------------------------------------------------|
E|--7-7-7-7-7-7-7-7-9-9-9-9-9-9-9-9-5-5-5-5-5-5-5-5-0-0-0-0-0-0-0-5---|

G|--------------------------------------------------------------------|
D|--------------------------------------------------------------------|
A|--------------------------------------------------------------------|   x4
E|--7-7-7-7-7-7-7-7-9-9-9-9-9-9-0-2-4-4-4-4-4-4-4-4-4-4-4-4-4-4-4-4---|

Chorus:
G|--------------------------------------------------------------------|
D|--------------------------------------------------------------------|
A|--------------------------------------------------------------------|   x1
E|--5--5-5-5--3-5--5-5-5--5-7-5-3--3-3-3---3--3-3-3--0----------------|

G|-------------------------------|
D|-------------------------------|
A|-------------------------------|   x1
E|--0--------0--------0----------|

Verse:
G|--------------------------------------------------------------------|
D|--------------------------------------------------------------------|
A|--------------------------------------------------------------------|
E|--7-7-7-7-7-7-7-7-9-9-9-9-9-9-9-9-5-5-5-5-5-5-5-5-0-0-0-0-0-0-0-5---|

G|--------------------------------------------------------------------|
D|--------------------------------------------------------------------|
A|--------------------------------------------------------------------|   x2
E|--7-7-7-7-7-7-7-7-9-9-9-9-9-9-0-2-4-4-4-4-4-4-4-4-4-4-4-4-4-4-4-4---|

Chorus:
G|--------------------------------------------------------------------|
D|--------------------------------------------------------------------|
A|--------------------------------------------------------------------|   x1
E|--5--5-5-5--3-5--5-5-5--5-7-5-3--3-3-3---3--3-3-3--0----------------|

G|-------------------------------|
D|-------------------------------|
A|-------------------------------|   x1
E|--0--------0--------0----------|

Bridge/Verse:
G|--------------------------------------------------------------------|
D|--------------------------------------------------------------------|
A|--------------------------------------------------------------------|
E|--7-7-7-7-7-7-7-7-9-9-9-9-9-9-9-9-5-5-5-5-5-5-5-5-0-0-0-0-0-0-0-5---|

G|--------------------------------------------------------------------|
D|--------------------------------------------------------------------|
A|--------------------------------------------------------------------|   x3
E|--7-7-7-7-7-7-7-7-9-9-9-9-9-9-0-2-4-4-4-4-4-4-4-4-4-4-4-4-4-4-4-4---|

Verse:
G|--------------------------------------------------------------------|
D|--------------------------------------------------------------------|
A|--------------------------------------------------------------------|
E|--7-7-7-7-7-7-7-7-9-9-9-9-9-9-9-9-5-5-5-5-5-5-5-5-0-0-0-0-0-0-0-5---|

G|--------------------------------------------------------------------|
D|--------------------------------------------------------------------|
A|--------------------------------------------------------------------|   x1
E|--7-7-7-7-7-7-7-7-9-9-9-9-9-9-0-2-4-4-4-4-4-4-4-4-4-4-4-4-4-4-0-3---|

Ending:
G|---------------------------------------------------------------------|
D|---------------------------------------------------------------------|
A|---------------------------------------------------------------------|   x2
E|--5--------5--------5--------5--------5--------5--------5--------5---|

I know the chorus is DEFINATELY wrong. He does lots more than what i\'ve got.
I only wrote this tab up in 10 mins while working it out.
Please make some advances on it. Ta.


Enviada por Sem inscrição
Nº de acordes: