Intro
G||-----||
D||-----||
A||-----||
E||-10-||

Verse
G||---------------------------------||
D||---------------------------------||
A||---------5-3---5-5-5-5-5-5-5-5-5-||
E||-5-5-5-5-----5-------------------||

Pre-Chorus
G||-----------------------------------------------------------------
D||-----------------------------------------------------------------
A||-----------------------------------------------------------------
E||-1~--1---1~--1---1~--1---1~--1---2~--2---2~--2---2~--2---2~--2---

Chorus
G||-----------------------------------------------------------------
D||-----------------------------------------------------------------
A||-----------------------------------------------------------------
E||-5---5-5---5-5-5-5---5-5---5-5-5-5---5-5---5-5-5-5---5-5---5/75-

G||-----------------------------------------------------------------
D||-----------------------------------------------------------------
A||-5---5-5---5-5-------------------5---5-5---5-5-------------------
E||---------------5-7---7-7---7-7-5---------------5-7---7-7---7-7-7-

Break
G||-----------------------------------------------------------------
D||-----------------------------------------------------------------
A||-----7---7-5-------------------------7---7-5---------------------
E||-0-0---0-----7-5---5-3---5-5-3---0-0---0-----7-5---5-3---5-5-3---


Enviada por Sem inscrição
Nº de acordes: