Foo Fighters

Best Of You

Foo Fighters

547 exibições
"Are you gone and onto someone new?"
G-----------------------------------------------------------------|
D-----------------------------------------------------------------|
A-4---------------2--------------0--------------------------------|
E-----------------------------------------------------------------|


Verse
G-----------------------------------------------------------------|
D-----------------------------------------------------------------|
A-------7-7-7-9-9-------7-7-7-9-9-------7-7-7-6-6-------7-7-7-6-6-|
E-9-9-9-----------9-9-9-----------5-5-5-----------5-5-5-----------|

G-----------------------------------------------------------------|
D-----------------------------------------------------------------|
A-------7-7-7-9-9-------7-7-7-9-9-------7-7-7-6-6-------7-7-7-6-6-|
E-9-9-9-----------9-9-9-----------5-5-5-----------5-5-5-----------|

G-----------------------------------------------------------------|
D-----------------------------------------------------------------|
A---------7---9-----------7---9---------7-7-7-6-6-------7-7-7-6---|
E-7-7-7-7---7---7-7-7-7-7---7---7-5-5-5-----------5-5-5---------7-|

G-----------------------------------------------------------------|
D-----------------------------------------------------------------|
A-------7-7-7-9-9-------7-7-7-9-9-------7-7-7-6-6-------7-7-7-6-6-|
E-9-9-9-----------9-9-9-----------5-5-5-----------5-5-5-----------|

G-----------------------------------------------------------------|
D-----------------------------------------------------------------|
A-------7-7-7-9-9-------7-7-7-9-9-------7-7-7-6-6-------7-7-7-6-6-|
E-9-9-9-----------9-9-9-----------5-5-5-----------5-5-5-----------|

G-----------------------------------------------------------------|
D-----------------------------------------------------------------|
A---------7---9---------7-7-7-9-9-------7-7-7-6-6-------7-7-7-6---|
E-7-7-7-7---7---7-7-7-7-----------5-5-5-----------5-5-5---------7-|


Chorus 1
G-----------------------------------------------------------------|
D-----------------------------------------------------------------|
A-4-4-4-4-4-4-4-4-2-2-2-2-2-2-2-2-0-0-0-0-0-0-0-0-----------------|
E-------------------------------------------------2-2-2-2-2-2-2-2-| x4


Guitar Solo
G-----------------------------------------------------------------|
D-----------------------------------------------------------------|
A-----------------------------------------------------------------|
E-9-9-9-9-9-9-9-9-9-9-9-9-9-9-9-9-5-5-5-5-5-5-5-5-5-5-5-5-5-5-5-5-|
  ^     ^     ^	  ^     ^     ^   ^     ^     ^	  ^     ^     ^

G-----------------------------------------------------------------|
D-----------------------------------------------------------------|
A-------------7---------------------------------------------------|
E-9-9-9-9---9---0-9-9-9-9-9-9-9-9-5-5-5-4---4-4---2-2-2-0---0-0---|
  ^     ^     ^	  ^     ^     ^   ^     ^         ^     ^
"OHHHHHHHHHHHHH OHHHHHHHHHHHHHH"
G-----------------------------------------------------------------|
D-----------------------------------------------------------------|
A-----------------------------------------------------------------|
E-5h7---7-7-7-5h7---7-7-7-5h7-7-7-5h7---7-7-7-5h7---7-7-7-5h7-7-7-|

G-----------------------------------------------------------------|
D-----------------------------------------------------------------|
A-----------------------------------------------------------------|
E---5---5-5-5---5---5-5-5---5-5-5---5---5-5-5---5---x---x---5-----|
    ^           ^           ^       ^           ^           ^
G-----------------------------------------------------------------|
D-----------------------------------------------------------------|
A-----------------------------------------------------------------|
E-5h7---7-7-7-5h7---7-7-7-5h7-7-7-5h7---7-7-7-5h7-x-x-x-x-x-7-----|
                                                            ^
G-----------------------------------------------------------------|
D-----------------------------------------------------------------|
A-----------------------------------------------------------------|
E---5---5-5-5---5---5-5-5---5-5-5---5---5-5-5---5---5-5-5---5-5-5-|
    ^           ^           ^       ^           ^           ^

Chorus 2
G-----------------------------------------------------------------|
D-----------------------------------------------------------------|
A-4-4-4-4-4-4-4-4-2-2-2-2-2-2-2-2-0-0-0-0-0-0-0-0-----------------|
E-------------------------------------------------2-2-2-2-2-2-2-2-|

G-----------------------------------------------------------------|
D-----------------------------------------------------------------|
A-4-4-4-4-4-4-4-4-2-2-2-2-2-2-2-2-0-0-0-0-0-0-0-0-----------------|
E-------------------------------------------------2-2-2-2-2-2-2-2-|

G-----------------------------------------------------------------|
D-----------------------------------------------------------------|
A-4-4-4-4-4-4-4-4-6-6-6-6-6-6-6-6-7-7-7-7-7-7-7-7-9-9-9-9-9-9-9-9-|
E-----------------------------------------------------------------|

G-----------------------------------------------------------------|
D-----------------------------------------------------------------|
A-4-4-4-4-4-4-4-4-6-6-6-6-6-6-6-6-7-7-7-7-7-7-7-7-9-9-9-9-9-9-9-9-|
E-----------------------------------------------------------------|
"I've got another confession my friend..."
G-----------------------------------------------------------------|
D-----------------------------------------------------------------|
A-----------------------------------------------------------------|
E-----------------------------------------------------------------|

G-----------------------------------------------------------------|
D-----------------------------------------------------------------|
A-----------------------------------------------------------------|
E-----------------------------------------------------------------|
"Where you born to resist"
G-----------------------------------------------------------------|
D-----------------------------------------------------------------|
A-2-2-2-2-2-2-2-2-2-2-2-2-2-2-2-2-2-0-0-0-0-0-0-0-0-0-0-0-0-0-0-0-|
E-----------------------------------------------------------------|

G-----------------------------------------------------------------|
D-----------------------------------------------------------------|
A-2-2-2-2-2-2-2-2-2-2-2-2-2-2-2-2-2-0-0-0-0-0-0-0-0-0-0-0-0-0-0-0-|
E-----------------------------------------------------------------|


Chorus 3
G-----------------------------------------------------------------|
D-----------------------------------------------------------------|
A-4-4-4-4-4-4-4-4-2-2-2-2-2-2-2-2-0-0-0-0-0-0-0-0-----------------|
E-------------------------------------------------2-2-2-2-2-2-2-2-|

G-----------------------------------------------------------------|
D---------------------------------------------------------1-2-1---|
A-4-4-4-4-4-4-4-4-2-2-2-2-2-2-2-2-0-0-0-0-0-0-0-0---------------2-|
E-------------------------------------------------2-2-2-2---------|

G-----------------------------------------------------------------|
D---------------------2-----2-1-----------------------------------|
A-4-4-4-4-4-4-4-4-2-2---2-4-----2-7-7-7-7-7-7-7-7-----------------|
E-------------------------------------------------2-2-2-2-2-2-2-2-|

G-----------------------------------------------------------------|
D-----------------------------------------------------------------|
A-4-4-4-4-4-4-4-4-6-6-6-6-6-6-6-6-7-7-7-7-7-7-7-7-----------------|
E-------------------------------------------------2-2-2-2-2-2-2-2-|


Outro
G-----------------------------------------------------------------|
D-----------------------------------------------------------------|
A-----------------------------------------------------------------|
E-9\-----9\-------9\-----9\-------9\-----9\-------9\-----9\-------|


Enviada por Sem inscrição
Nº de acordes: