Verse 1st time
g|--------------------------------------------------|
d|-------7------------------------------------------|
a|--------------------------------------------------|
e|-5-5-5---5-5-5---2-2-2-2-2-2-2-2--4-4-4-4-7-7-7-7-|

Rest of verse
g|----------------------------------------------------------------|
d|-------7--------------------------7-----------------------------|
a|----------------------------------------------------------------|
e|-5-5-5---5-5-5--5-5-5---5-5-5--2-2-2-2-2-2-2-2--4-4-4-4-7-7-7-7-|


Chorus First part
g|-------------------------2-|
d|-----------------------2---|
a|-0-0-0---------------0-----|
e|-------0-2-4-4-4-0-2-------| (x2)

g|-4-2---2-----2-----2---------------1-|
d|---------0-0---2-2---4-4-4-2-4-2-4---|
a|-------------------------------------|
e|-------------------------------------|

g|-2-2-2-------------------2-|
d|-----------------------2---|
a|---------------------0-----|
e|-------0-2-4-4-4-0-2-------| (x2)

Second part
g|---------------2-1-----------|
d|-------------------4-2-------|
a|-5-4-2-0-2-4-5---------4-2-0-|
e|-----------------------------|

g|---------------2-1-----------|
d|-------------------4-2-2-----|
a|-5-4-2-0-2-4-5---------------|
e|-----------------------------|

g|---------------2-1-----------|
d|-------------------4-2-------|
a|-5-4-2-0-2-4-5---------4-2-0-|
e|-----------------------------|

g|-----------------------------|
d|-----------------------------|
a|-----------------------------|
e|-1-1-1-3-3-3-5-5-5-5-5-5-5---|

g|-----------------------------|
d|-----------------------------|
a|-----------------------------|
e|-1-1-1-3-3-3-5---------------|


Enviada por Sem inscrição
Nº de acordes: