Foo Fighters

Arlandria

Foo Fighters

188 exibições
Tabbed By Greg Miles

Intro
|---------------------------------------------------------------------|
|---------------------------------------------------------------------|
|------11-9----11--------11-9------11-----11-9-11---------11-9-11-----|
|-9-12------12-----9--12------12-9---9-12---------12--9-11--------12~-|

Verse
|---------------------------------|
|---------------------------------|
|-4-4-4-0-0-0-0-0-----------------| x9 (7x with palm mute, 2x without)
|-----------------0-0-0-2-2-2-2-2-|

Chorus
|-----------------------------------------------------------------|
|-----------------------------------------------------------------|
|-4-4-4-4-4-4-4-4-0-0-0-0-0-0-0-0-----------------2-2-2-2-2-------|
|---------------------------------0-0-0-0-0-0-0-0-----------2-2-2-|

|-----------------------------------------------------------------|
|-----------------------------------------------------------------|
|-4-4-4-4-4-4-4-4-0-0-0-0-0-0-0-0-----------------2-2-2-2-3-3-3-3-|
|---------------------------------0-0-0-0-0-0-0-0-----------------|

|-----------------------------------------------------------------|
|-----------------------------------------------------------------|
|-4-4-4-4-4-4-4-4-----------------0-0-0-0-0-0-0-0-2-2-2-2-3-3-3-3-|
|-----------------2-2-2-2-2-2-2-2---------------------------------|

|-----------------------------------------------------------------|
|-----------------------------------------------------------------|
|-4-4-4-4-4-4-4-4-----------------0-0-0-0-0-0-0-0-2-2-2-2-3-3-3-3-|
|-----------------2-2-2-2-2-2-2-2---------------------------------|

Post-Chorus
G|---------------------------------------|
D|---------------------------------------|
A|-4-0-4-0-------------4-0-4-0-----------|
E|------------2-0-4-2------------2-0-4-2~|

Verse x9 (4x with palm mute, 5x without)

Chorus

Bridge
|-----------------------------------------------------------------|
|-----------------------------------------------------------------|
|-4-4-4-4-4-4-4-4-0-0-0-0-0-0-0-0-----------------2-2-2-2-2-------|
|---------------------------------0-0-0-0-0-0-0-0-----------2-2-2-|

|-----------------------------------------------------------------|
|-----------------------------------------------------------------|
|-4-4-4-4-4-4-4-4-0-0-0-0-0-0-0-0-----------------2-2-2-2-3-3-3-3-|
|---------------------------------0-0-0-0-0-0-0-0-----------------|

Verse x10 (4x with palm mute, 6x without. Also start quite and gradually get louder)

Chorus

Outro
|-------------------------------------------------------------------|
|-------------------------------------------------------------------|
|-4-0-4-0-------------------------------4-0-4-0---------------------| x2 (hold the last not
|-------------------2-0-4-2---------------------------------2-0-4-2-| on second time)

Enjoy! This should be pretty darn accurate; the only thing I was hazy on was the 
intro. But if you know how the intro should go, just let me know and I will change my version :)


Enviada por Sem inscrição
Nº de acordes: