Foo Fighters

All My Life

Foo Fighters

266 exibições
/ = slide up
 = slide down
r = rest
x = play with thumb
~ = let the note ring



NORMAL tune: E, A, D, G


Verse (The Main Theme)
|---------------------------------------------------------------|
|---------------------------------------------------------------|
|---------------------------------------------------------------|
|-3-3-0-3-3-r-0-3-3-0-3--5-5-5--3-3-0-3-3-r-0-3-3-0-3--6-6-6--|

|---------------------------------------------------------------|
|---------------------------------------------------------------|
|-------------------------------------------------------1-1-1-r-|
|-3-3-0-3-3-r-0-3-3-0-3--5-5-5--3-3-0-3-3-r-0-3-3-0-3----------|



The last time before chorus
|--------------------------------------------------------------|
|--------------------------------------------------------------|
|--------------------------------------------------------------|
|-3-3-0-3-3-r-0-3-3-0-3--5-5-5--3-3-0-3-3-r-0-3-3-0-3-r-3-3--|


Have A Brake


The chorus
|-----|
|-----|
|-----|
|-15-|

|---------------------------------------------------------
|:--------------------------------------------------------
|:--------------------------------------------------------
|-3--3----3-3-3-3--3----3-3-1-3--3----3-3-3-3--3--3-3-3-3-

|-------------------------------------------|
|------------------------------------------:|
|------------------------------------------:|
|-0--0--0-0-0-0-1--1--1-1-1-1--6--6--6-8-6--| REPEAT


To the main theme...
|---------------------------------------------------------------|
|---------------------------------------------------------------|
|-------------------------------------------------------1-1-1-r-|
|-3-3-0-3-3-r-0-3-3-0-3--5-5-5--3-3-0-3-3-r-0-3-3-0-3----------|


VERSE (4 times)

(A BRAKE)


Chorus                 "POWERSLIDE"
|-----|               |-----------|
|-----|               |-----------|
|-----|               |-----------|
|-15-| or like this: |-13--/15--|

|-----------------------------------------------------------
|-----------------------------------------------------------
|-----------------------------------------------------------
|-3--3----3-3-3-3--3--3-3-3-3-1-3--3----3-3-3-3--3--3-3-3-3-

|-----------------------------------------
|-----------------------------------------
|----------------------8------------------
|-0--0--0-0-0-0-1--1/6------6--6--6-8-6--

|---------------------------------------------------------------
|---------------------------------------------------------------
|-------------------------------------------------3-1-----1-----
|-3--3----3-3-3-3--3--3-3-3-3-1-3--3----3-3-3-1-3-----3-1---3-1-


|--------------------------------------------|
|--------------------------------------------|
|---------------85-------5-8--1--1--1-3-1--|
|-0--0--0-0-0-0-----8-6-8--------------------|



To the main theme...
|-------------|--------------------------------------------------|
|-------------|--------------------------------------------------|
|-------------|------------------------------------------1-1-1-r-|
|-3-3-0-3-3-r-|0-3-3-0-3--5-5-5--3-3-0-3-3-r-0-3-3-0-3----------|


(A BRAKE)

You know that sound, it's like hitting against metal with a metal stick?
It first comes at 2:30. Actually it's played with guitar!

But you can play it with bass like this, for example.
(s = slap) ~~ = to that direction, know what I mean? (All 24's)
|----------------------------------|
|----------------------------------|
|-24----24----24----24-------------|
|-24----24----24----24--continues--|
  s     s     s     s 

^ SO that's for your thumb (Just hit those ~~24's with your thumb)


And for left hand: (x = mute the open 'E')
|----------------------------------|
|----------------------------------|
|-10~~~~10~~~~10~~~~10-------------|
|-x-----x-----x-----x---continues--|



Time 2:53
|-----------------------------------|
|-----------------------------------|
|-----------------------------------|
|-(0)-3-3-r-0-3-3-r-0-3-3-r-0-3-3-r-| x12


Time 3:28
|------------------------------------------------------------------
|------------------------------------------------------------------
|------------------------------------------------------------------
|-3-3-r-0-3-3-r-0-3-3-r-0-3-3-r-0-3-3-r-0-3-3-r-0-3-3-r-0-3-3-/15-

|------------------------------------------------------------------
|------------------------------------------------------------------
|------------------------------------------------------------------
|-3-3-r-0-3-3-r-0-3-3-r-0-3-3-r-0-3-3-r-0-3-3-r-0-3-/--15-15-15-15
 -DONE, DONE!!!
|------------------------------------------------------------------
|------------------------------------------------------------------
|------------------------------------------------------------------
|-3-3-r-0-3-3-r-0-3-3-r-0-3-3---/15-17-15--3-3-r-0-3-3-r-0-3-0----

|----------------------------------------------------------------
|-----------------------------------------------------8/10-12-10-
|-------------------------------8/10-10-10-8-10-10-10------------
|-3-3-r-0-3-3-r-0-3-3-r-0-3-3-r----------------------------------

|----------------------|
|----------------------|
|-12-10/12-------------|
|----------15-15-13-15-|


Chorus
|-----------------------------------------------------------
|-----------------------------------------------5~~~~~~~5~~~
|-----------------------------------------------------------
|-3--3----3-3-3-3--3--3-3-3-3-1-3--3--3-3-3-3-3----3--3---3-

|--------------------------------------------
|--------------------------------------------
|--------------------------------------------
|-0--0--0-0-0-0--1--1--1-1-1-1--6--6--6-8-6--

|------------------------------------------------------------
|------------------------------------------------------------
|-10--10--10-10-10-10-10--10--10-10-10-8-10--10--10-10-10-10-
|------------------------------------------------------------

|-------------------------------------------------------------
|---------------------------------3---------------------------
|-10-8-7--------0---------------------------------------------
|--------10-8-6---3-0--0--0-0-0-0----1--1-1-1-1--6--6--6-8-6--

|---------------------------------------------------------------------
|---------------------------------------------------------------------
|---------------------------------------------------------------------
|-3-3-r-3-3-3-r-3-3-3-r-3-3-3-r-3-3-3-r-3-3-3-r-3-3-3-r-3-3-3-r-3-3-r-

|------------------------------------------------------------------------|
|------------------------------------------------------------------------|
|------------------------------------------------------------------------|
|-3-3-3-3-r-3-3-3-r-3-3-3-r-3-3-3-r-3-3-3-r-3-3-3-r-3-3-3-r-3-3-r--3-3-r-|


Enviada por Sem inscrição
Nº de acordes: