Djavan

Nem Um Dia

Djavan

1.790 exibições
INTRO E VERSO:
G---------7-------------------3----------
D--------7---------5-3-------3-----------
A--5-555-----3-333-----1-111----------4-5
E------------------------------5---5-7---

REFRÃO:

G-------------------------------------
D-------------------------------------
A----------5-555-5-------7-777-7------
E---6-666-6-------6-666-6-------5-555-


G--------------------------------------------------
D--------------------------------------------------
A----------5-555-5-------7-777-7-------7-777-7-----
E---6-666-6-------6-666-6-------5-555-5-------5-555


Enviada por Sem inscrição
Nº de acordes: