Diante do Trono

Quero Me Apaixonar

Diante do Trono

1.301 exibições
Artista: Diante do Trono
Álbum: 
Música: 

INTRO:

G||--------9--7-6-7--------6-7-6-----------------7-8-9---
D||---2/7------------2-4-5---------4--4-6-7-6/9--------2-
A||------------------------------------------------------
E||------------------------------------------------------

SOLO:

G||--------------------------------------------------------------
D||--/6-7-9-7------------/6-7-9-7-6-6h7-6h7\---/6-7-9-7----------
A||-----------7---7/9\----------------------------------7---7/9--
E||-------------9-----------------------------------------9------

G||--------------------------------------------------------------
D||--/6-7-9-7-6-6h7-6h7/-----------------------------------------
A||--------------------------------------------------------------
E||--------------------------------------------------------------


Enviada por Sem inscrição
Nº de acordes: