Dazaranha

Novos Ditados

Dazaranha

253 exibições
G|---------------|---------------|---------------|---------------|
D|---------------|---------------|---------------|---------------|
A|----------7-7--|-------7-7-5-5-|----------7777-|-------7-7-5-5/|
E|5-5--8-8-------|-5-8-8---------|5-5--8-8-------|-5-8-8---------|

G|---------------|---------------|---------------|---------------|
D|---------------|---------------|---------------|---------------|
A|-----2-2--5-5--|--2-2--5-5--2-2|-----2-2--5555-|--22-887755----|
E|3-3------------|3--------------|3-3------------|3-----------8-8|

 Durante a música tem algumas variações . 
 Mas a música é basicamente isso .


Enviada por Sem inscrição
Nº de acordes: