CPM 22

Tarde De Outubro

CPM 22

588 exibições
G|-----------------------------|
D|-----------------------------|
A|-----------------------------|
E|-577--55--44--22-------------|

G|-----------------------------|
D|-----------------------------|
A|-----------------------------|
E|-577--55--44--22-22-2-22-222-|

#Riff 1
G|--------------------------------|
D|--------------------------------|
A|--------------------------------|
E|-7(16x)--5(16x)--4(16x)--2(16x)-| 2x

G|--------------------------------|
D|--------------------------------|
A|--------------------------------|
E|-77--77--7--77--777--44-44------|

G|----------------------------------------|
D|----------------------------------------|
A|----------------------------------------|
E|-5--55--555--77-7-77-777--22-22--5542-5-|

G|-------------------------------|
D|-------------------------------|
A|-------------------------------|
E|-7(15x)--9--15(14x)-7-9-4(15x)-|

G|-----------------------------------|
D|-----------------------------------|
A|-----------44-44-4-----------------|
E|-0--2(8x)---------7(15x)-9-15(14x)-|

G|---------------------------|
D|---------------------------|
A|---------------------------|
E|-7--9--4(15x)--0-2(8x)-----|

G|------------------------------|
D|------------9---7-------------|
A|-44-44-4--6----6--------------|
E|---------7----5---------------|

G|-------------------|
D|---6---------------|
A|--6---14-676-------|
E|-4--2--------------|

#Riff 1


G|---------------------------------|
D|---------------------------------|
A|---------------------------------|
E|-77-77-7-77-777--44-44--5-55-555-|

G|--------------------------------|
D|--------------------------------|
A|--------------------------------|
E|-77-77-7-77-777--22-22--55--425-|2x

G|-------------------------------|
D|-------------------------------|
A|-44-44-------44-444------------|
E|-------55425--------55425--77--|


Enviada por Sem inscrição
Nº de acordes: