Verse (listen to song for timing)
-------12-12------12-12------------------9-9-----9-9---------|
--------------------------12---------------------------9-----|
-----10---------10----------10----------7-------7--------7---|
-------------------------------------------------------------|


Chorus 1
--------------------------------------------------------------------|
--------------------------------------------------------------------|
------------------7-7-7-7-7-7-7-7-5-5-5-5-5-5-5-5-------------------|
--8-8-8-8-8-8-8-8---------------------------------5-5-5-5-5-5-5-5---|

--------------------------------------------------------------------|
--------------------------------------------------------------------|
-------------------7-7-7-7-7-7-7--5-5-5-5-5-5-5-5-5-5-5-5/17--------|
-8-8-8-8-8-8-8-8-8--------------------------------------------------|


Variation at the end of verse 2:
--------12-12------12-12-----------------9-9-----9-11-12--11-9------------|
--------------------------12-----------------------------------12-10-9----|
-----10---------10-----------10--------7-------7--------------------------|
--------------------------------------------------------------------------|


Chorus 2

--------------------------------------7-9-9-9-9-9-9-9-9-9-9-9-9-7-7-7-7---|
-7-7-7-7-7-7-7-9-10-10-10-10-10-10-10-------------------------------------|
--------------------------------------------------------------------------|
--------------5----------------------8------------------------------------|

--------------------------------------------------------------------------|
-10-10-10-10-10-10-10-10-5-5-5-5-5-5-5-5----------------------------------|
-----------------------------------------7-7-7-7-7-7-7-7-7-7-7-7-7-7-5-5--|
--------------------------------------------------------------------------|

--------------------------------------------------------------------------|
--------------------------------------------------------------------------|
-----------------5-5-5-5-5-5-5-5------------------------------------------|
-8-8-8-8-8-8-8-8-----------------7-7-7-7-7-7-7-7-8-8-8-8-8-8-8-8----------|

--------------------------------------------------------------------------|
--------------------------------------------------------------------------|
---------------------------------7-7-7-7-7-7-7-7-7-7-7-7-7-7-5-5----------|
-8-8-8-8-8-8-8-8-3-3-3-3-3-3-3-3------------------------------------------|


Break after chorus 2

--------------------------------------------------------------------------|
--------------------------------------------------------------------------|
-9----/15----7----5----7----3----/9----5----------------------------------|
--------------------------------------------------------------------------|


The form is pretty straightforward:

Verse
Chorus 1
Verse (+Variation)
Chorus 2
Break
Chorus 3 (just like chorus 1)


Enviada por Sem inscrição
Nº de acordes: