Barão Vermelho
Tom: Bb

Intro:     

G-|-------------------------------------------|
D-|-------------------------------------------|
A-|-111---111---111---111---------------------| (4x)
E-|-------------------------------------------|
B-|-------------------------------------------|

Na 4x começa o verso: Meu partido...

G-|-------------------------------------------|
D-|-------------------------------------------|
A-|-1-1---------------------------------------| (8x)
E-|-----141-----------------------------------|
B-|-------------------------------------------|

Os meus sonhos....

G-|-------------------------------------------|
D-|---1---1-1-1-1--1--1--1-\8-8-8----43-------|
A-|-13--3----3----3---3----------------43-----|
E-|--------------------------------------141--|
B-|-------------------------------------------|

Que aquele garoto...

G-|-------------------------------------------|
D-|---------------343-------------------------|
A-|------------ 4434---43-------------6666666-|
E-|-1111-\444444---------41111-\44444---------|
B-|-------------------------------------------|

Meus heróis...

G-|-------------------------------------------|
D-|-------------------------------------------|
A-|-1-1-------6-6-6-6-------------------------| (2x)
E-|------4-4----------------------------------|
B-|-------------------------------------------|

Ideologia ...
G-|-------------------------------------------|
D-|-------------------------------------------|
A-|-------\6-66--/1-1-1-1---------------------| (2x)
E-|--2-22-------------------------------------|
B-|-------------------------------------------|

Na segunda vez para ir para o solo:
(manter Eb no solo) 

Ideologiaaaahhh pra viver.

G-|-------------------------------------------|
D-|-------------------------------------------|
A-|---------\6 6-6-6-6-6-6-6-6-6-6-6-6-6------|
E-|-2-22--1-----------------------------------|
B-|-------------------------------------------|

Que aquele garoto.... ( volta para o fim! )

Valeu galera ! qualquer dúvida me enviem email.
Esse é o tom original da música!
O tempo é só acertar ouvindo...!
Viva Cazuza e Barão! 

Letra:  Ideologia

Meu partido
É um coração partido
E as ilusões   estão  todas perdidas
Os meus sonhos 
Foram todos vendidos
Tão barato que eu nem acredito
Ah, eu nem acredito

Que aquele garoto que ia 
mudar o mundo
Mudar o mundo
Frequenta agora as festas do  
"grand monde"
           
Meus heróis morreram 
de overdose
Meus inimigos estão no poder

Ideologia
Eu quero uma pra viver

O meu tesão
agora é risco de vida (será?)
o meu "sex in drive" não tem nenhum rock n' roll
Eu vou pagar
a conta do analista
para nunca mais ter que saber quem eu sou
saber quem eu sou

Pois aquele garoto que ia 
mudar o mundo
Mudar o mundo
Agora assiste a tudo
em cima do muro
em cima do muro
           
Meus heróis morreram 
de overdose
Meus inimigos estão no poder

Ideologia
Eu quero uma pra viver
Ideologia
Pra viver...
  • Enviada por: Sem inscrição
  • Exibições: 2.321