Zé Vaqueiro

Tenho Medo

Zé Vaqueiro

Compartilhar:

Tom: Em
Intro: ‌Em‌  ‌D‌  ‌Am‌  ‌C‌  ‌Em‌  ‌D‌  ‌Am‌ 

[DEDILHADO - Intro]

Parte 1 De 2
   Em             D        Am        C
E|---------------------2--------------------|
B|------------0------3----------1--------1--|
G|----------0------2----------2--------0----|
D|--------2------0----------2--------2------|
A|------------------------0--------3--------|
E|-3-2--0-----------------------------------|

Parte 2 De 2
   Em        D        Am
E|-----------------2------------------------|
B|-------0-------3----1---------------------|
G|-----0-------2------2---------------------|
D|---2-------0--------2---------------------|
A|--------------------0----2h3--2-----------|
E|-0-------------------------------3--------|

[TAB - Solo]

Parte 1 De 2

E|----------7--10/12--10-8-7h8p7-----8-7-8-7-8-7-------|
B|-8-7----8----------------------8---------------------|
G|-----9-----------------------------------------------|
D|-----------------------------------------------------|
A|-----------------------------------------------------|
E|-----------------------------------------------------|

Parte 2 De 2

E|-------7--10/12--10-8-7h8p7-----7h8--7---------------|
B|-----8----------------------8----------8-------------|
G|--9--------------------------------------9-----------|
D|-----------------------------------------------------|
A|-----------------------------------------------------|
E|-----------------------------------------------------|

 ‌[Primeira‌ ‌parte]‌ 
 
Em‌           ‌D‌            ‌Am‌  ‌C‌ 
   ‌Me‌ ‌dá‌ ‌um‌ ‌tempo‌ ‌pra‌ ‌pensar‌ 
Em‌                    ‌D‌ 
   ‌Tenho‌ ‌que‌ ‌criar‌ ‌coragem‌  
             ‌Am‌  ‌C‌ 
Pra‌ ‌me‌ ‌arriscar‌ 
Em‌              ‌D‌ 
   ‌Por‌ ‌favor‌ ‌entenda‌  
                ‌Am‌   ‌C‌ 
O‌ ‌que‌ ‌eu‌ ‌tô‌ ‌passando‌ 
Em‌                   ‌D‌ 
   ‌Só‌ ‌tô‌ ‌pedindo‌ ‌um‌ ‌tempo‌ 
            ‌Am‌   ‌C‌ 
Não‌ ‌tô‌ ‌recusando‌ 

[DEDILHADO - Primeira Parte]

Parte 1 De 2
   Em           D                      
E|-0-------0----2-------2-------------------|
B|-----0------------3-----------------------|
G|---0------------2-------------------------|
D|--------------0-----0---------------------|
A|------------------------------------------|
E|-0-----0----------------------------------|

Parte 2 De 2
   Am           C
E|-5-------5--------------------------------|
B|-----5--------1-------1-------------------|
G|---5--------------0-----------------------|
D|----------------2-------------------------|
A|-0-----0------3-----3---------------------|
E|------------------------------------------|
 
[Pré-Refrão]‌ 
 
Em‌             ‌D‌       ‌Am‌  
   ‌O‌ ‌problema‌ ‌não‌ ‌é‌ ‌você‌ 
         ‌C‌               ‌Em‌ 
Tenho‌ ‌receio‌ ‌de‌ ‌me‌ ‌envolver‌ 
                ‌D‌ 
Outras‌ ‌pessoas‌ ‌fizeram‌  
         ‌Am‌     ‌C‌ 
Meu‌ ‌coração‌ ‌sofrer‌ 

[DEDILHADO - Pré-Refrão]

Parte 1 De 2
   Em           D                      
E|-0-------0----2-------2-------------------|
B|-----0------------3-----------------------|
G|---0------------2-------------------------|
D|--------------0-----0---------------------|
A|------------------------------------------|
E|-0-----0----------------------------------|

Parte 2 De 2
   Am           C
E|-5-------5--------------------------------|
B|-----5--------1-------1-------------------|
G|---5--------------0-----------------------|
D|----------------2-------------------------|
A|-0-----0------3-----3---------------------|
E|------------------------------------------|

Parte 1 De 2
   Em           D                      
E|-0-------0----2-------2-------------------|
B|-----0------------3-----------------------|
G|---0------------2-------------------------|
D|--------------0-----0---------------------|
A|------------------------------------------|
E|-0-----0----------------------------------|

Parte 2 De 2Variação
   Am           C
E|-5-------5----0---------------------------|
B|-----5--------1---------------------------|
G|---5----------0---------------------------|
D|--------------2---------------------------|
A|-0-----0------3---------------------------|
E|------------------------------------------|
 
[Refrão]‌ 
 
Em‌                       ‌D‌       ‌Am‌ 
   ‌Tenho‌ ‌medo‌ ‌de‌ ‌alguém‌ ‌me‌ ‌machucar‌ 
          ‌C‌               ‌Em‌ 
Eu‌ ‌tenho‌ ‌medo‌ ‌de‌ ‌me‌ ‌entregar‌ 
           ‌D‌                ‌Am‌  ‌C‌ 
Eu‌ ‌tô‌ ‌com‌ ‌medo‌ ‌de‌ ‌me‌ ‌apaixonar‌ 
 
Em‌                       ‌D‌       ‌Am‌ 
   ‌Tenho‌ ‌medo‌ ‌de‌ ‌alguém‌ ‌me‌ ‌machucar‌ 
          ‌C‌               ‌Em‌ 
Eu‌ ‌tenho‌ ‌medo‌ ‌de‌ ‌me‌ ‌entregar‌ 
           ‌D‌                ‌Am‌ 
Eu‌ ‌tô‌ ‌com‌ ‌medo‌ ‌de‌ ‌me‌ ‌apaixonar‌ 
            ‌C‌              ‌Em‌ 
E‌ ‌outra‌ ‌pessoa‌ ‌querer‌ ‌me‌ ‌usar‌ 
 
D‌  ‌Am‌  ‌C‌  ‌Em‌  ‌D‌  ‌Am‌  ‌C‌ 

[TAB - solo]

Parte 1 De 2

E|----------7--10/12--10-8-7h8p7-----8-7-8-7-8-7-------|
B|-8-7----8----------------------8---------------------|
G|-----9-----------------------------------------------|
D|-----------------------------------------------------|
A|-----------------------------------------------------|
E|-----------------------------------------------------|

Parte 2 De 2

E|-------7--10/12--10-8-7h8p7-----7h8--7---------------|
B|-----8----------------------8----------8-------------|
G|--9--------------------------------------9-----------|
D|-----------------------------------------------------|
A|-----------------------------------------------------|
E|-----------------------------------------------------|
 
[Primeira‌ ‌parte]‌ 
 
Em‌           ‌D‌            ‌Am‌  ‌C‌ 
   ‌Me‌ ‌dá‌ ‌um‌ ‌tempo‌ ‌pra‌ ‌pensar‌ 
Em‌                    ‌D‌ 
   ‌Tenho‌ ‌que‌ ‌criar‌ ‌coragem‌  
             ‌Am‌  ‌C‌ 
Pra‌ ‌me‌ ‌arriscar‌ 
Em‌              ‌D‌ 
   ‌Por‌ ‌favor‌ ‌entenda‌  
                ‌Am‌   ‌C‌ 
O‌ ‌que‌ ‌eu‌ ‌tô‌ ‌passando‌ 
Em‌                   ‌D‌ 
   ‌Só‌ ‌tô‌ ‌pedindo‌ ‌um‌ ‌tempo‌ 
            ‌Am‌   ‌C‌ 
Não‌ ‌tô‌ ‌recusando‌ 
 
[Pré-Refrão]‌ 
 
Em‌             ‌D‌       ‌Am‌  
   ‌O‌ ‌problema‌ ‌não‌ ‌é‌ ‌você‌ 
         ‌C‌               ‌Em‌ 
Tenho‌ ‌receio‌ ‌de‌ ‌me‌ ‌envolver‌ 
                ‌D‌ 
Outras‌ ‌pessoas‌ ‌fizeram‌  
         ‌Am‌     ‌C‌ 
Meu‌ ‌coração‌ ‌sofrer‌ 
 
[Refrão‌ ‌Final]‌ 
 
Em‌                       ‌D‌       ‌Am‌ 
   ‌Tenho‌ ‌medo‌ ‌de‌ ‌alguém‌ ‌me‌ ‌machucar‌ 
          ‌C‌               ‌Em‌ 
Eu‌ ‌tenho‌ ‌medo‌ ‌de‌ ‌me‌ ‌entregar‌ 
           ‌D‌                ‌Am‌  ‌C‌ 
Eu‌ ‌tô‌ ‌com‌ ‌medo‌ ‌de‌ ‌me‌ ‌apaixonar‌ 
 
Em‌                       ‌D‌       ‌Am‌ 
   ‌Tenho‌ ‌medo‌ ‌de‌ ‌alguém‌ ‌me‌ ‌machucar‌ 
          ‌C‌               ‌Em‌ 
Eu‌ ‌tenho‌ ‌medo‌ ‌de‌ ‌me‌ ‌entregar‌ 
           ‌D‌                ‌Am‌  ‌C‌ 
Eu‌ ‌tô‌ ‌com‌ ‌medo‌ ‌de‌ ‌me‌ ‌apaixonar‌ 
 
Em‌                       ‌D‌       ‌Am‌ 
   ‌Tenho‌ ‌medo‌ ‌de‌ ‌alguém‌ ‌me‌ ‌machucar‌ 
          ‌C‌               ‌Em‌ 
Eu‌ ‌tenho‌ ‌medo‌ ‌de‌ ‌me‌ ‌entregar‌ 
           ‌D‌                ‌Am‌  ‌C‌ 
Eu‌ ‌tô‌ ‌com‌ ‌medo‌ ‌de‌ ‌me‌ ‌apaixonar‌ 
 
Em‌                       ‌D‌       ‌Am‌ 
   ‌Tenho‌ ‌medo‌ ‌de‌ ‌alguém‌ ‌me‌ ‌machucar‌ 
          ‌C‌               ‌Em‌ 
Eu‌ ‌tenho‌ ‌medo‌ ‌de‌ ‌me‌ ‌entregar‌ 
           ‌D‌                ‌Am‌ 
Eu‌ ‌tô‌ ‌com‌ ‌medo‌ ‌de‌ ‌me‌ ‌apaixonar‌ 
            ‌C‌              ‌Em‌ 
E‌ ‌outra‌ ‌pessoa‌ ‌querer‌ ‌me‌ ‌usar‌ 
 
( D‌  ‌Am‌  ‌C‌  ‌Em‌  ‌D‌  ‌Am‌  ‌C‌ )
( Em‌  ‌D‌  ‌Am‌  ‌C‌  ‌Em‌  ‌D‌  ‌Am‌  ‌C‌ )

[TAB - Solo Final]

Parte 1 De 4

E|----------7--10/12--10-8-7h8p7-----8-7-8-7-8-7-------|
B|-8-7----8----------------------8---------------------|
G|-----9-----------------------------------------------|
D|-----------------------------------------------------|
A|-----------------------------------------------------|
E|-----------------------------------------------------|

Parte 2 De 4

E|-------7--10/12--10-8-7h8p7-----7h8--7---------------|
B|-----8----------------------8----------8-------------|
G|--9--------------------------------------------------|
D|-----------------------------------------------------|
A|-----------------------------------------------------|
E|-----------------------------------------------------|

Parte 3 De 4

E|-------7--10/12--10-8-7h8p7-----8-7-8-7-8-7----------|
B|-----8----------------------8------------------------|
G|--9--------------------------------------------------|
D|-----------------------------------------------------|
A|-----------------------------------------------------|
E|-----------------------------------------------------|

Parte 4 De 4

E|-------7--10/12--10-8-7h8p7-----7h8--7---------------|
B|-----8----------------------8----------8-------------|
G|--9--------------------------------------9-----------|
D|-----------------------------------------------------|
A|-----------------------------------------------------|
E|-----------------------------------------------------|

                          ‌Em‌ 
Eu‌ ‌tenho‌ ‌medo‌ ‌de‌ ‌me‌ ‌entregar‌
  • Enviada por: Sem inscrição
  • Exibições: 12
  • Nº de acordes: 17