Zé Vaqueiro

Confidencial

Zé Vaqueiro

Compartilhar:

Tom: B

Intro: (B  C#  A#m  D#m) 2x

[Tab - Solo]

Parte 1 de 4
E|------9----9-9/11-14-11-9h11p9------------|
B|-9/11---11---------------------9----------|
G|------------------------------------------|
D|------------------------------------------|
A|------------------------------------------|
E|------------------------------------------|

Parte 2 de 4
E|---------------13h14-13-9-11--------------|
B|----9-11-9/11-----------------------------|
G|-11---------------------------------------|
D|------------------------------------------|
A|------------------------------------------|
E|------------------------------------------|

Parte 3 de 4
E|------9----9-9/11-14-11-9h11p9------------|
B|-9/11---11---------------------9----------|
G|------------------------------------------|
D|------------------------------------------|
A|------------------------------------------|
E|------------------------------------------|

Parte 4 de 4
E|---------------13h14-13-16----------------|
B|----9-11-9/11---------------16------------|
G|-11---------------------------------------|
D|------------------------------------------|
A|------------------------------------------|
E|------------------------------------------|
 
Verso 1:
D#m
    E todo mundo
           C#
Tá desconfiando   
                               G#m  
Que a gente se encontra em segredo
                           B
Só porque eu tô te encarando
                         D#m
Só porque você fica sem jeito

Pré-Refrão:
                    C#
Se alguém perguntar
               G#m
Eu nego até a morte
                    B
Que é pra não dar azar

Se é escondido
                C#
É que tá dando sorte

Refrão:
       B        C#
Deixa confidencial
          A#m
E fica comigo
        D#m
Fica comigo
       B        C#
Deixa confidencial
          A#m
E fica comigo
        D#m
Fica comigo
                   B
Ninguém precisa saber
  C#                   D#m
Amor só tem que ser vivido

Solo: 
B  C#  A#m  D#m 
B  C#  A#m  D#m  D#7(4/9)

[Tab - Solo]

Parte 1 de 4
E|------9----9-9/11-14-11-9h11p9------------|
B|-9/11---11---------------------9----------|
G|------------------------------------------|
D|------------------------------------------|
A|------------------------------------------|
E|------------------------------------------|

Parte 2 de 4
E|---------------13h14-13-9-11--------------|
B|----9-11-9/11-----------------------------|
G|-11---------------------------------------|
D|------------------------------------------|
A|------------------------------------------|
E|------------------------------------------|

Parte 3 de 4
E|------9----9-9/11-14-11-9h11p9------------|
B|-9/11---11---------------------9----------|
G|------------------------------------------|
D|------------------------------------------|
A|------------------------------------------|
E|------------------------------------------|

Parte 4 de 4
E|---------------13h14-13-16----------------|
B|----9-11-9/11---------------16------------|
G|-11---------------------------------------|
D|------------------------------------------|
A|------------------------------------------|
E|------------------------------------------|

Pré-Refrão:
D#m                     C#
    Se alguém perguntar
               G#m
Eu nego até a morte
                       B
Que é pra não dar azar

Se é escondido
                C#
É que tá dando sorte

Refrão:
       B        C#
Deixa confidencial
          A#m
E fica comigo
        D#m
Fica comigo
       B        C#
Deixa confidencial
          A#m
E fica comigo
        D#m
Fica comigo

       B        C#
Deixa confidencial
          A#m
E fica comigo
        D#m
Fica comigo
       B        C#
Deixa confidencial
          A#m
E fica comigo
        D#m
Fica comigo
                   B
Ninguém precisa saber
  C#                   D#m
Amor só tem que ser vivido

Final:
(B  C#  A#m  D#m) 2x

[Tab - Solo]

Parte 1 de 4
E|------9----9-9/11-14-11-9h11p9------------|
B|-9/11---11---------------------9----------|
G|------------------------------------------|
D|------------------------------------------|
A|------------------------------------------|
E|------------------------------------------|

Parte 2 de 4
E|---------------13h14-13-9-11--------------|
B|----9-11-9/11-----------------------------|
G|-11---------------------------------------|
D|------------------------------------------|
A|------------------------------------------|
E|------------------------------------------|

Parte 3 de 4
E|------9----9-9/11-14-11-9h11p9------------|
B|-9/11---11---------------------9----------|
G|------------------------------------------|
D|------------------------------------------|
A|------------------------------------------|
E|------------------------------------------|

Parte 4 de 4
E|---------------13h14-13-16----------------|
B|----9-11-9/11---------------16------------|
G|-11---------------------------------------|
D|------------------------------------------|
A|------------------------------------------|
E|------------------------------------------|
  • Enviada por: Sem inscrição
  • Exibições: 11
  • Nº de acordes: 6