Xand Avião

Casal Raiz

Xand Avião

Compartilhar:

Tom: C
Intro: C  G  Am  F 

Verso 1:
 C
Faltou dinheiro aqui, cê tem aí, amor?
G                                  Am
  Amar é dividir, não é vergonha, não
                                  F
Aqui é parceria, isso aqui é relação

Pré-Refrão:
C
  Ela toma cachaça comigo

Não reclama da roupa no chão
G
  Se ela bebe, sou eu quem dirijo
                 Am 
Espero ela no salão
                         F  G
Agora pensa aí num casalzão

Refrão:
             C                   G
A gente não liga pro que o povo diz
                  Am 
Quem ama também briga
                       F
Também xinga e sempre volta
                    C
Sabe esses casal Nutella
                           G
Que bloqueia e para de seguir?
      Dm7      Am        F
Aqui não, aqui é casal raiz

             C                   G
A gente não liga pro que o povo diz
                  Am 
Quem ama também briga
                       F
Também xinga e sempre volta
                    C
Sabe esses casal Nutella
                           G
Que bloqueia e para de seguir?
      Dm7      Am        F
Aqui não, aqui é casal raiz

Solo: C  G  Am  F
      C  G  Dm7  F

E|------------------------------------------|
B|-------------6/8--5-5-6-5h6p5-------------|
G|-4/5-5-5-5-5------------------7-7---------|
D|------------------------------------------|
A|------------------------------------------|
E|------------------------------------------|

E|------------------------------------------|
B|-------------6/8--5-6-5-------------------|
G|-5-5-5-5-5-5------------5-----------------|
D|--------------------------7---------------|
A|------------------------------------------|
E|------------------------------------------|

E|------------------------------------------|
B|----5-6-5-6-5h6p5---5-6-5h6p5-------------|
G|------------------5-----------5-7---------|
D|-/7---------------------------------------|
A|------------------------------------------|
E|------------------------------------------|

E|------------------------------------------|
B|------------------------------------------|
G|---4h5----5---5---5-5h7-5-----5-7-7/9-----|
D|-7-----7----7---7----------/7-------------|
A|------------------------------------------|
E|------------------------------------------|

Verso 2:
 C
Faltou dinheiro aqui, cê tem aí, amor?
G                                  Am
  Amar é dividir, não é vergonha, não
                                  F
Aqui é parceria, isso aqui é relação

Pré-Refrão:
C
  Ela toma cachaça comigo

Não reclama da roupa no chão
G
  Se ela bebe, sou eu quem dirijo
                 Am 
Espero ela no salão
                         F  G
Agora pensa aí num casalzão

Refrão:
             C                   G
A gente não liga pro que o povo diz
                  Am 
Quem ama também briga
                       F
Também xinga e sempre volta
                    C
Sabe esses casal Nutella
                           G
Que bloqueia e para de seguir?
      Dm7      Am        F
Aqui não, aqui é casal raiz

             C                   G
A gente não liga pro que o povo diz
                  Am 
Quem ama também briga
                       F
Também xinga e sempre volta
                    C
Sabe esses casal Nutella
                           G
Que bloqueia e para de seguir?
      Dm7      Am        F
Aqui não, aqui é casal raiz

             C                   G
A gente não liga pro que o povo diz
                  Am 
Quem ama também briga
                       F
Também xinga e sempre volta
                    C
Sabe esses casal Nutella
                           G
Que bloqueia e para de seguir?
      Dm7      Am        F
Aqui não, aqui é casal raiz

             C                   G
A gente não liga pro que o povo diz
                  Am 
Quem ama também briga
                       F
Também xinga e sempre volta
                    C
Sabe esses casal Nutella
                           G
Que bloqueia e para de seguir?
      Dm7      Am        F
Aqui não, aqui é casal raiz
      Dm7      Am        C
Aqui não, aqui é casal raiz
  • Enviada por: Sem inscrição
  • Exibições: 15
  • Nº de acordes: 5