Victor e Leo

Não Mais

Victor e Leo

3.366 exibições
Capotraste 5° casa

Solo introdução:

1ª parte:

    Am                    C
E|---------------------x-----------------x--|
B|----------6-6--------x------6-6-----6--x--|
G|------7---7-7-----5--x------5-5--------x--|
D|--5h7-----7-7--------x--7---7-7--------x--|
A|--------5-----5-5----x----8-----8-8----x--|
E|---------------------x-----------------x--|

2ª parte:

    G                 Am
E|-----------------x------------------------|
B|--5---5-5--------x------6-6---------------|
G|------5-5---7-5--x--7---5-5---------------|
D|------5-5--------x------7-7---------------|
A|-----------------x----5-----5-5-----------|
E|----8-----8-8----x------------------------|

(repete 1ª parte)

3ª parte:

    G                 Am
E|-----------------x------------------------|
B|--8---------5----x----------5h6p5---------|
G|------5-5-----5--x--7-----7-------7-------|
D|------5-5--------x------7-----------7-----|
A|-----------------x----5-------------------|
E|----8-----8-8----x------------------------|


1ª parte:

 C  G                    Am
Hei,  foi tudo tão de repente
F         C         G
  Simplesmente não mais
     Am        F
Ficaria sem você
       Dm  F       G
Sem você,     não mais

 C  G                   Am
Hei,  tem coisas que a gente
F        C         G
  Faz e diz tanto faz
      Am        F
Só diria pra você
       Dm  F       G
Sem você,     não mais

Refrão:

       F                       C
Sem você eu era sozinho sem saber
       F                          C
Sem você nada inesquecível pra viver
       Am      F         G
Sem você, não mais, não mais

(repete solo intro)

 C  G                   Am
Hei,  tem coisas que a gente
F        C         G
  Faz e diz tanto faz
      Am        F
Só diria pra você
       Dm  F       G
Sem você,     não mais

Refrão:

       F                       C
Sem você eu era sozinho sem saber
       F                          C
Sem você nada inesquecível pra viver
       Am      F         G
Sem você, não mais, não mais

       F                       C
Sem você eu era sozinho sem saber
       F                          C
Sem você nada inesquecível pra viver
       Am      F         G
Sem você, não mais, não mais

(primeiro solo final - pode ser feito com slide)

E|-----------------------------8/10\8-8/10--|
B|--8/10-8/10\8-10\8------8/10--------------|
G|-------------------8/10-------------------|
D|------------------------------------------|
A|------------------------------------------|
E|------------------------------------------|

(segundo solo)

1ª parte:

E|------10-8------8-13-12-10----------------|
B|-8/10------8h10------------13/15-15-------|
G|------------------------------------------|
D|------------------------------------------|
A|------------------------------------------|
E|------------------------------------------|

2ª parte:

E|--16r15-13-16r15-13----13-15-15/17-15-----|
B|--------------------15--------------------|
G|------------------------------------------|
D|------------------------------------------|
A|------------------------------------------|
E|------------------------------------------|

3ª parte:
                     Am9/E
E|--------------------5---------------------|
B|--13\5-5-6-5--------6---------------------|
G|-------------7p5-5--7---------------------|
D|--------------------7---------------------|
A|--------------------5---------------------|
E|--------------------5---------------------|


Enviada por Sem inscrição
Correção por equipepegacifras
Nº de acordes: 6