Tiago Iorc

Nothing But A Song

Tiago Iorc

3.648 exibições
Tom: D
Intro: D7+/9   F#m7/9   F#m7/11    F#m7/9   F#m7/11 

Primeira parte:
D7+/9                    F#m7/9   F#m7/11    F#m7/9   F#m7/11 
 I read your mind a thousand times
D7+/9                    F#m7/9   F#m7/11    F#m7/9   F#m7/11 
 Exempt myself from alibis
D7+/9                    F#m7/9   F#m7/11    F#m7/9   F#m7/11 
 Surrender to me softly
D7+/9                               F#m7/9   F#m7/11    F#m7/9   F#m7/11 
 You\\\'re trying to find a different side on me

  D7+/9 
E|---------x-----x--------------------------
B|-------5-x---5-x--------------------------
G|---------x-6---x--------------------------   (2x)
D|---------x-----x--------------------------
A|-0-4/5---x-5---x--------------------------
E|---------x-----x--------------------------


  F#m7/9   F#m7/11  F#m7/9  F#m7/11 
E|-----x-----x-------------x----------------
B|-----x---0-x-----0---0---x----------------
G|---1-x-2---x-1h2-2-----2-x----------------
D|---2-x-2---x-2---2-------x----------------
A|-----x-----x-----x-------x----------------
E|-0-2-x-2---x-2---x-2-----x----------------


Pré-Refrão:
     Bm7      C#m7
You see this life
    Bm7     C#m7  D7+     E4/7/9 
As nothing but a song without no rhyme

E|-------x-------x-----x-------x------------
B|-----3-x-----3-x---5-x-----5-x------------
G|-----2-x-----2-x---4-x-----4-x------------
D|-----4-x---4---x---6-x---6---x------------
A|-0-2---x-2-----x-2-4-x-4-----x------------
E|-------x-------x-----x-------x------------

E|-------x-----x-----x-----7-x--------------
B|-----3-x-5-5-x-7-7-x-----7-x--------------
G|-----2-x-4-4-x-6-6-x---7---x--------------
D|-----4-x-6-6-x-7-7-x-------x--------------
A|-0-2---x-4---x-5---x-7-----x--------------
E|-------x-----x-----x-------x--------------


Refrão:
 A7+	         Bm7/11 
Hum dap dararah
                F#m7/9   F#m7/11  F#m7/9   F#m7/11 
Hum dap dararah oh

E|-----x------x-----x-------x---------------
B|---5-x----5-x---5-x-----5-x---------------
G|---6-x----6-x---7-x-----7-x---------------
D|---6-x--6---x---7-x---7---x---------------
A|-----x------x-----x-------x---------------
E|-0-5-x-5----x-0-7-x-7-----x---------------

E|-----x-----x-------------x----------------
B|-----x---0-x-----0---0---x----------------
G|---1-x-2---x-1h2-2-----2-x----------------  (2x)
D|---2-x-2---x-2---2-------x----------------
A|-----x-----x-----x-------x----------------
E|-0-2-x-2---x-2---x-2-----x----------------


D7+/9                    F#m7/9   F#m7/11    F#m7/9   F#m7/11 
Devote myself with compromise
D7+/9                    F#m7/9   F#m7/11    F#m7/9   F#m7/11 
Selfishly lying, giving bad advice
D7+/9                    F#m7/9   F#m7/11    F#m7/9   F#m7/11 
Surrender to me once again
D7+/9                    F#m7/9   F#m7/11    F#m7/9   F#m7/11 
You\\\'re trying to find a boy inside a man

E|-----x-------x---x-------x----------------
B|---5-x-----5-x-5-x-----5-x----------------
G|---6-x-----6-x-4-x-----4-x----------------
D|---4-x---4---x-6-x---6---x----------------
A|-0-5-x-5-----x-5-x-5-----x----------------
E|-----x-------x---x-------x----------------

E|-----x-------x------x-------x-------------
B|---0-x-----0-x------x-------x-------------
G|---4-x-----4-x------x---9---x-------------
D|---2-x---2---x----7-x-----7-x-------------
A|-0-4-x-4-----x-/9---x-9-----x-------------
E|-----x-------x------x-------x-------------


Repete essa parte 3x:

E|------7----7----x--------7----7----x------
B|---10-10-----10-x--10-10-10-----10-x------
G|---8--8---------x--8--8--8---------x------
D|---7------------x--7--7------------x------
A|------x---------x--------x---------x------
E|-0-7--x--7------x--7-----x--7------x------

E|---9-9---9---x-----9---9---x--------------
B|---7-7-----7-x-7-7-7-----7-x--------------
G|---7-7-------x-7-7-7-------x--------------
D|-------------x-7-7---------x--------------
A|-----x-------x-----x-------x--------------
E|-0-0-x-0-----x-0---x-0-----x--------------


Pré-Refrão 2:
    Bm7      C#m7
You ask me why
    Bm7	 C#m7	  D7+	  E4/7/9 
We suffocate our lives beneath the sky

Refrão 2:
 A7+	         Bm7/11 
Hum dap dararah
                F#m7/9   F#m7/11  F#m7/9   F#m7/11 
Hum dap dararah oh

Segunda parte:
 D7+/9 	     E/D        C#m7	 F#m7
Maybe we\\\'re losing all reason in our silly fights
 D7+/9 	    E/D             C#m7
Maybe this time it\\\'ll seem right
F#m7
 I wanna tell you ‘bout
     D7+/9 	  E/D
The day we first met and
       C#m7	        F#m7
How i feel when you\\\'re holding me tight
B7 	          E4/7/9/13
 and how you\\\'ve changed my life

Final:
 A7+	         Bm7/11 
Hum dap dararah
                F#m7/9   F#m7/11  F#m7/9   F#m7/11 
Hum dap dararah oh


Enviada por Sem inscrição
Correção por tinho
Nº de acordes: 17