Strike

O Jogo Virou

Strike

Compartilhar:

Intro

6]------------2----------2-----0----
5]---2-----------4^64------4-------
4]------464-------------------------
3]----------------------------------
2]----------------------------------
1]----------------------------------

            B     E
Eu sigo em frente
      F#              E
Hoje nada vai me abalar
       B          E             F#
Sem olhar pra trás eu vou na fé
E            B                      E
Não vi que tudo ao meu redor ia desmoronar
          F#                  E
Como um sonho eu acordei em outro lugar
  B     E         F#                    E
E eu senti que estrela brilhou, e nada faz parar
                B                 E
Seis horas da manhã e o sol me toca 
        F#                            E
Com a paz que renova tudo em minha volta
B                          E
Som a noite inteira com a lua refletindo
           F#                               E
No fim do túnel a luz que cerca o meu caminho
             B                  E
Já ta tudo pronto pra trip decolar
         F#                      E
E na bagagem traz sorte pra somar
           B                      E
Pela sensação de liberdade é conduzido
    F#                      E     
Limita o seu pudor e libera seu libido

Refrão 
           B     E F#
E o jogo virooououoo
    E      B E
A casa caiu 
    F#                        E 
Causando a mil por hora e nada abala
           B     E F#
E o jogo virooououoo
    E          B           E
A mente se abriu, eu vou voar
         F#                       E 
O mundo gira e bota sempre tudo no lugar

riff 1
(enquanto um violão faz o riff 1 o 
outro continua fazendo a mesma base da musica)

        B     E      F#     E       B    E      F#  E
6]----------------------------------------------------
5]----------------------------------------------------
4]----------------------------------------------------
3]---------------------------------4-------4--4^3-----
2]----7777-555-444-2^4--9-7-4^5^4-------4----4^2-----
1]----------------------------------------------------

(B,E,F#,E)
Sem me arrepender, vou continuar
Manter o equilíbrio é estar na brisa, levitar
Com minha bela na paz de Deus
O que sobe pra mente faz o meu caminho o seu
Tá tudo pronto com os pés na areia
E o brilho da cidade incendeia
Segue a vida reverenciando o som do mar
Vou na certeza que o sol vai me guiar

Refrão

riff 2 (2x)

6]-----------------------00-00------------------------
5]-----2-2--------4^64--------------------------------
4]-----------4^64-------------------------------------
3]----------------------------------------------------
2]----------------------------------------------------
1]----------------------------------------------------

(B5,B5,E5,F#5)
(aqui um violão faz o riff 3 enquanto o outro faz a base com as notas acima)

riff 3 
6]-----------------------00-22------------------------
5]-----2-2--------4^64--------------------------------
4]-----------4^64-------------------------------------
3]----------------------------------------------------
2]----------------------------------------------------
1]----------------------------------------------------

Segue no rolé de bike
À noite eu entro em cena e o clima é bom
Queimando a Babilônia
Legalize, eu faço um som
Não morro na praia, eu sei me aventurar
Sou come-quieto, mas sei bem quando explanar
Que ela é toda imoral, de olhar já passo mal
O encaixe foi perfeito, a sintonia surreal
Ousada nova escola faz história estilo Reis de Dogtown

Refrão

riff 3 (vai assm até acaba a musica - toca umas 4 ou 5 vezes)
  • Enviada por: Sem inscrição
  • Exibições: 3.614
  • Nº de acordes: 6