Slipknot

Welcome

Slipknot

328 exibições
Tuning: - Drop B.

. = Palm mute.
# = Tremolo pick.
* = Harmonic.

||-----------------------------------------------|
||-----------------------------------------------|
||-----------------------------------------------|
||-----------------------------------------------|
||-----------------------------------------------|
||--1-0-0----0h1-0-0----1-0-0----0--0-1-0--------| -(x2)
    . .                             . .
    # #                               #

---------------------------------------------------------------||
                                                               ||
||-----------------------------------------------|             ||     
||-----------------------------------------------|             || 
||-----------------------------------------------|             ||
||-----------------------------------------------|             ||
||-----------------------------------------------|             ||
||--0-4-3-0--------------------------------------| -(x8)       ||
    . . . .                                                    || 
                                                               || 
||-----------------------------------------------|             ||
||-----------------------------------------------|             || 
||-----------------------------------------------|             ||
||-----------------------------------------------|             ||
||-----------------------------------------------|             || 
||--0-1-0-0--------------------------------------| -(x16)      ||
                                                               ||
----Use up-strokes and down-strokes for these riffs-----------||


The verse is similar to the intro riff.

Pre-chorus:
||-----------------------------------------------|
||-----------------------------------------------|
||-----------------------------------------------|
||--88888888-------------------------------------|
||--88888888-------------------------------------|
||--88888888-------------------------------------|
    ........

Chorus:
||-----------------------------------------------|
||-----------------------------------------------|
||-----------------------------------------------|
||-----------------------------------------------|
||-----------------------------------------------|
||--0-0--3/2--0--10/9--0--3/2--0--6/5------------| -(x4)
    . .       .        .       .

||-----------------------------------------------|
||-----------------------------------------------|
||-----------------------------------------------|
||-----------------------------------------------|
||-----------------------------------------------|
||--0-2-1-0--------------------------------------|
    . . . .
(x9 then slide from 12 or something to 0)


Solo backing:
||-----------------------------------------------|
||-----------------------------------------------|
||-----------------------------------------------|
||-----------------------------------------------|
||---------------3*------------------------------|
||--1-0-0----0-1-----0-0-0-0---------------------|
                     . . . .

After the solo it varies slightly:
||-----------------------------------------------|
||-----------------------------------------------|
||-----------------------------------------------|
||-----------------------------------------------|
||----------------------3*-----------------------|
||--1-0-0--1-0-0----0-1-----0-0-0-0--------------|

Elida, bjs pra vc



Enviada por Sem inscrição
Nº de acordes: 0