Skank

Vou Deixar

Skank

3.991 exibições
Tom: D

Intro: 
e|-----------------------------------------------------------------------|
b|-5-5-3-3-2-2-3-3--5-5-3-3-2-2-3-3--5-5-3-3-2-2-3-3--5-5-3-3-2-3-2------|
g|------------------------------------------------------------------4-2--|
d|-----------------------------------------------------------------------|
a|-----------------------------------------------------------------------|
E|-----------------------------------------------------------------------|

       D D4 D F#          G       Gm
Vou deixar     a  vida   me  levar 
                 D D4 D  F#
Pra onde ela quiser
         G     Gm
Estou no meu lugar
                  D
Você já sabe onde é
Bm G           A             D
É não conte o tempo por nós dois
Bm   G           A           D       Bm
Pois a qualquer hora posso estar de volta
 G            A          A A4 A
Depois que a noite terminar
        D D4 D   F#          G      Gm
Vou deixar       a  vida   me  levar
                 D D4 D F#
Pra onde ela quiser
         G      Gm
Seguir a direção
                     D
De uma estrela qualquer 
Bm G         A           D   Bm
É não quero hora pra voltar não
G        A         D      Bm
Conheço bem a solidão me solta 
G          A           A A4 A
E deixa a sorte me buscar
Em7                    A
 Eu já estou na sua estrada
Em7                  A
 Sozinho na enxergo nada
Em7          F#m
 Mas vou ficar aqui
 Em7               F#m
Até que o dia amanheça
Em7            F#m 
 Vou me esquecer de mim
     A 
E você se puder não se esqueça
       D D4 D   F#       G       Gm
Vou deixar      o coração bater
                  D D4 D  F#
Na madrugada sem fim 
          G      Gm
Deixar o sol te ver
               D   Bm
Ajoelhada por mim sim
 G         A           D   Bm
Não tenho hora pra voltar não
G       A            D     Bm
Eu agradeço tanto a sua escolta
G            A         A A4 A
Mas deixa a noite terminar 
Em7                    A
 Eu já estou na sua estrada
Em7                  A
 Sozinho na enxergo nada
Em7         F#m
 Mas vou ficar aqui
 Em7               F#m
Até que o dia amanheça
Em7            F#m 
 Vou me esquecer de mim
     A 
E você se puder não se esqueça

Solo:
                 (D   F#   G  Gm) 2x 
e|-------------------------------------------------------------------
b|-3-5-3-5/7-7b-5-7-5~-5~-3-3-----------3/7-5-5h7-5-5~---------------
g|----------------------------3-3h5-3-2-----------------------------
d|-------------------------------------------------------------------
a|-------------------------------------------------------------------
E|-------------------------------------------------------------------

               (D  Bm  G  A) 4x
e--------------------------------------------------------------------------------|
b-----------3-----------------3----------------3---------------3-----------------|
g-3-3h5-3-2---4--0-2-0----0-2---4--0-2-0---0-2---4-0-2-0---0-2---4--0-2-0---0-2--|
d-----------------------2----------------2---------------2----------------2------|
a--------------------------------------------------------------------------------|
E--------------------------------------------------------------------------------|

D   Bm    G         A          D   Bm
Não não  não quero hora pra voltar não
G        A         D      Bm
Conheço bem a solidão me solta 
G          A
E deixa a sorte me buscar
D   Bm   G         A          D   Bm  
Não não não tenho hora pra voltar não
G       A            D     Bm
Eu agradeço tanto a sua escolta
G            A
Mas deixa a noite terminar 

(D Bm G A)


Enviada por Sem inscrição
Nº de acordes: 10