Skank

O Som Da Sua Voz

Skank

232 exibições
Intro: Em7 D C9 D

Em7
Não me deixe na chuva não
D
 Não me tire do coração
C9                            D
 Não me diga que vai sem mim
Em7
 Já conheço esse teu olhar
D
Uma luz a se afastar
C9		   D	
A quilômetros daqui

riff1
|------------------------|
|------------------------|
|---2-4-5-----2-4-----0-4|
|-4-------0-4--------2---|
|------------------3-----|
|------------------------|
Em7 D C9 D

Em7
Não me deixe na noite não
D
Na travessa da desolação
C9                        D
Não me diga que quer assim
Em7
Porque ali não há calor
D
Não há luz nem há razão
C9                 D
E não há o teu riso

riff1

D			C
Tudo está tão certo, não está?
D			C
Vem aqui mais perto, vem mostrar

Vem dizer aonde vai seu olhar

G                A7     Cm             G
Quando a noite estender seu manto sobre nós
             A7     Cm             G
Meu abrigo então será o som da sua voz



riff2
      Em7      D         C9       D 
|---0-0-787----0-0--787--5-7-787|
|-------------------------------|
|-------------------------------|
|-------------------------------|
|-------------------------------|
|-------------------------------|

Em7 D C9 D

Em7
Não me deixe na chuva não
D
 Não me tire do coração
C9                            D
 Não me diga que vai sem mim
Em7
 Já conheço esse teu olhar
D
Uma luz a se afastar
C9		   D	
A quilômetros daqui

riff1

D			C
Tudo está tão certo, não está?
D			C
Vem aqui mais perto, vem mostrar

Vem dizer aonde vai seu olhar

G                A7     Cm             G
Quando a noite estender seu manto sobre nós
             A7     Cm             G
Meu abrigo então será o som da sua voz
                A7     Cm             G
Quando a noite estender seu manto sobre nós
             A7     Cm             G
Meu abrigo então será o som da sua voz

riff3 
 G      A7       Cm        G
|7---5-3--5-7-5------3--------|
|---------------5-------4--3--|
|-----------------------------|  2x
|-----------------------------|
|-----------------------------|
|-----------------------------|


D com tempo bem curto, escute a musica para entender melhor 


Enviada por by_bruno
Nº de acordes: 8