Seether

Fade Away

Seether

323 exibições
Intro
e|---------------------------------|------------------------------|
B|---------------------------------|------------------------------|
G|*--------------------------------|-----------------------------*|
D|*--------------------------------|-----------------------------*|
A|-----2---3-2---2-----2---3-2---2-|------------------------------|
E|-1-1---1-----1---3-3---3-----3---|-1/5-5-5-5/7-7-7-7/8-8-8-8/10-|

Verso x4
e|-------------|----------------|-------------------|
B|-----1-----1-|----------------|-------------------|
G|*------------|--4-4-4h5p4-----|----5-7p5---5-----*|
D|*-3-----3----|5-----------5---|-7--------7--7(3)*|
A|-------------|----------------|-------------------|
E|-------------|----------------|-------------------|

Refrão x3
e|--3--3--3-|-1-1--1--1-1-|-0--0--0-|-0-0--0--0-0--|
B|--3--3--3-|-1-1--1--1-1-|-1--1--1-|-1-1--1--1-1--|
G|*-0--0--0-|-2-2--2--2-2-|-2--2--2-|-0-0--0--0-0-*|
D|*-0--0--0-|-3-3--3--3-3-|-2--2--2-|-2-2--2--2-2-*|
A|--2--2--2-|-------------|-0--0--0-|-3-3--3--3-3--|
E|--3--3--3-|-------------|---------|--------------|

e|--3--3--3-|-1-1--1--1-1-|-0-|-------------------|
B|--3--3--3-|-1-1--1--1-1-|-1-|-------------------|
G|--0--0--0-|-2-2--2--2-2-|-2-|----5-7p5---5------|
D|--0--0--0-|-3-3--3--3-3-|-2-|-7--------7--7(3)-|
A|--2--2--2-|-------------|-0-|-------------------|
E|--3--3--3-|-------------|---|-------------------|
Verso x3
e|-------------|----------------|-------------------|
B|-----1-----1-|----------------|-------------------|
G|*------------|--4-4-4h5p4-----|----5-7p5---5-----*|
D|*-3-----3----|5-----------5---|-7--------7--7(3)*|
A|-------------|----------------|-------------------|
E|-------------|----------------|-------------------|

e|------------|----------------|---------------------------------|
B|----1-----1-|----------------|---------------------------------|
G|------------|--4-4-4h5p4-----|---------------------------------|
D|-3-----3----|5-----------5---|-7-7-7-7-9-9-9-9-10-10-10-10-12--|
A|------------|----------------|-7-7-7-7-9-9-9-9-10-10-10-10-12--|
E|------------|----------------|-5-5-5-5-7-7-7-7--8--8--8--8-10--|
(Distortion)
refrão x3
e|----------|-------------|---------|--------------|
B|----------|-------------|---------|--------------|
G|*---------|-------------|-2--2--2-|-5-5--5--5-5-*|
D|*-5--5--5-|-3-3--3--3-3-|-2--2--2-|-5-5--5--5-5-*|
A|--5--5--5-|-3-3--3--3-3-|-0--0--0-|-3-3--3--3-3--|
E|--3--3--3-|-1-1--1--1-1-|---------|--------------|

e|----------|-------------|---------------------------------|
B|----------|-------------|---------------------------------|
G|----------|-------------|---------------------------------|
D|--5--5--5-|-3-3--3--3-3-|-7-7-7-7-9-9-9-9-10-10-10-10-12--|
A|--5--5--5-|-3-3--3--3-3-|-7-7-7-7-9-9-9-9-10-10-10-10-12--|
E|--3--3--3-|-1-1--1--1-1-|-5-5-5-5-7-7-7-7--8--8--8--8-10--|

bridge x3 x3
e|----------------|---------|-------|
B|----------------|---------|-------|
G|*-7-7-7-7---7--*|*5-5-5-5*|-7--2--|
D|*-7-7-7-7---7-2*|*5-5-5-5*|-7--2--|
A|--5-5-5-5---5-2-|-3-3-3-3-|-5--0--|
E|--------------0-|---------|-------|
(toque duas vezes)

e|---------|-------|
B|---------|-------|
G|*5-5-5-5*|-7--2--|
D|*5-5-5-5*|-7--2--|
A|-3-3-3-3-|-5--0--|
E|---------|-------|

Solo
e|-----------7--8--7-----0---8--7-----0-----------------------------|
B|--8~--10~-----------8------------8------8~------------------------|
G|------------------------------------------------------------------|
D|------------------------------------------------------------------|
A|------------------------------------------------------------------|
E|------------------------------------------------------------------|

e|----------------------------------------|
B|--8~~~~~--------------------------------|
G|----------------------------------------|
D|--------7-7-7-7-9-9-9-9-10-10-10-10-12--|
A|--------7-7-7-7-9-9-9-9-10-10-10-10-12--|
E|--------5-5-5-5-7-7-7-7--8--8--8--8-10--|

Verso/Outro x3
e|----------|-------------|---------|--------------|
B|----------|-------------|---------|--------------|
G|*---------|-------------|-2--2--2-|-5-5--5--5-5-*|
D|*-5--5--5-|-3-3--3--3-3-|-2--2--2-|-5-5--5--5-5-*|
A|--5--5--5-|-3-3--3--3-3-|-0--0--0-|-3-3--3--3-3--|
E|--3--3--3-|-1-1--1--1-1-|---------|--------------|

e|----------|-------------|
B|----------|-------------|
G|----------|-------------|
D|--5--5--5-|-3-3--3--3-3-|
A|--5--5--5-|-3-3--3--3-3-|
E|--3--3--3-|-1-1--1--1-1-|


Enviada por Sem inscrição
Nº de acordes: 0