Red Hot Chili Peppers

The Zephy Song

Red Hot Chili Peppers

999 exibições
Tom: Am
Intro:  Am  G  Em  F   (2x)
 
  Am     G     Em      F       Am      G         Em        F 
e|------------------------------------------------------------------| 
b|-----8------6-----------------------------------------------------| 
g|---5------4--------4------5-----5-7/9----4-5/7----------------7/9-|Intr.: 
d|-7------5--------5------7-----7--------5-----------5-7/9----7-----| 
a|---------------7------8--------------------------7--------8-------| 
E|------------------------------------------------------------------| 

 

 
e|---------------------------------------------------------------------- 
b|-----------8-6-------------5p6h5-----------------------1-3/5\3-------- 
g|---5-7/9-9---------4-5/7-7------------------7-5-4----2---------5-4-5-- Riff 1 
d|-7---------------5------------------5-7/9-9--------3------------------ 
a|----------------------------------7----------------------------------- 
E|---------------------------------------------------------------------- 

 

 
e|---------------------------------------------------------------| 
b|-----------8-10-8--------5/6\5---------------------------------| 
g|---5-7/9-9---------4-5-6-----------------7-5-4--4-4p5--4-4p5---| 
d|-7---------------------------------5/9-9-----------------------| 
a|---------------------------------7-----------------------------| 
E|---------------------------------------------------------------| 

 
Am      Riff 1
 Can I get your hand to write on 
G
 Just a piece of leg to bite on
Em                             
 What a night to fly my kite on 
 F
Do you want to flash your light on
Am                             G        
 Take a look it’s on display … for you 
 Em                    F
Comin’ down, no not today 
Am
 Did you meet your fortune teller 
G
 Get it off with no propeller
Em 
 Do it up, it’s on with Stella 
  F
What a way to finally smell her
Am                             G 
Pickin up, but not to strong … for you
 Em                        F
 Take a piece and pass it on
 
CHORUS:
D                
Fly away on my Zephyr 
G           A 
 I feel it more than ever
D                
 And in this perfect weather 
G               A
 We’ll find a place together
 Am G    Em F
Fly on  my wind
 
Am  Riff 1
 Rebel and a liberator 
G
 Find a way to be a skater
Em 
 Rev it up to levitate her 
F
 Super friendly aviator
Am                             G       
 Take a look it’s on display - for you
 Em                     F
Comin’ down, no not today 
CHORUS:
D                
Fly away on my Zephyr 
G           A 
 I feel it more than ever
D                
 And in this perfect weather 
G               A
 We’ll find a place together
 Am G    Em F
Fly on  my wind
 
D                    
 In the water where I centre my emotion 
G                   A
 All the world can pass me by
D                  
Fly away on my Zephyr 
G              A
 We’ll find a place together 
Solo  Am  G  Em  F   2 x 
 
Am                   G  
uoh-uoh-uoh-uoh-uoh-uooooooh   do you
Em                            F
yeah yeah yeah yeah yeah yea-aeeeh
Am                   G  
uoh-uoh-uoh-uoh-uoh-uooooooh  want to
Em                            F
yeah yeah yeah yeah yeah yea-aeeeh
 
CHORUS:
D                
Fly away on my Zephyr 
G           A 
 I feel it more than ever
D                
 And in this perfect weather 
G               A
 We’ll find a place together 
D                    
 In the water where I centre my emotion 
G                   A
 All the world can pass me by
D                      
 Fly away on my Zephyr 
G                A      D   G   A   D  
 We’re going to live foreveeeeeeeeeeer         
G  A    D   G    A     D
     foreveeeeeeeeeeeeeer


Enviada por Sem inscrição
Nº de acordes: 6