Red Hot Chili Peppers

Parallel Universe

Red Hot Chili Peppers

1.001 exibições
Tom: Cmim 
Intro: Cmin, Cmin, Bb, Bb, Dmin, Eb, Gsus4, G
 

 (Cmin, Cmin, Bb, Bb, Dmin, Eb, Gsus4, G)
Deep inside of a parallel universe
It's getting harder and harder to tell what came first and
Under water where thoughts can breathe Easily
Far away you were made in a sea just like me 
 

Chorus:
(Cmin, Eb, Bb, G)
Christ I'm a sidewinder I'm a California King
I swear it's everywhere oh It's everything 
 

(Cmin, Cmin, Bb, Bb, Dmin, Eb, Gsus4, G)
Staring straight up into the sky Oh my my
A solar system that fits in your eye Microcosm 
You could die but your never dead spider web
Take a look at the stars in your head fields of space kid 
Chorus x 2 
Bass
G(-------------------------------------------------:( 
D(-------------------------------------------------:(
A(-3--3--3--3--------------------------------------:(
E(-------------3--3--3--3--4--4--4--4--1--1--1-----:(
Guitar (Muted. every 2nd time)
e(-------------------------------------------------:( 
B(-------------------------------------------------:(
G(-8--8--8--8--8--8--------------------------------:( 
D(-------------------8--8--8--8--8--8--------------:(
A(-------------------------------------10-10-10-10-:(
E(-------------------------------------------------:(
 

(Cmin, Cmin, Bb, Bb, Dmin, Eb, Gsus4, G)
Psychic changes are born in your heart entertain
A nervous breakthrough that makes us the same Bless your heart girl 
Kill the pressure it's raining on Salty Cheeks
When you hear the beloved song I am with you 
Chorus x 2 


Enviada por Sem inscrição
Nº de acordes: 7