Tom: Bm

Intro: O som vai aumentando vagarosamente

 Amostra de apenas 1 tempo:
e|---------------------------------|
B|---------------------------------|
G|-3-3-3-3-3-3-3-3-3-3-3-3-3-3-3-3-|  (São 4 tempos de duração)
D|-4-4-4-4-4-4-4-4-4-4-4-4-4-4-4-4-|
A|-4-4-4-4-4-4-4-4-4-4-4-4-4-4-4-4-|
E|-2-2-2-2-2-2-2-2-2-2-2-2-2-2-2-2-|

Riff 1:
e|-------------------------------------------------------|
B|--------------------------------------------14--14--14-|
G|----11----------11-------14-11-14-11-14-11-------------|
D|-9-----11--9-9-----11-9--------------------------------|
A|-------------------------------------------------------|
E|-------------------------------------------------------|

Riff 2:
e|-------------------------------------------------------|
B|-------------------------------------------------------|
G|----11----------11-------14------11---------14------11-|
D|-9-----11--9-9-----11-9--------------------------------|
A|-------------------------------------------------------|
E|-------------------------------------------------------|

Verso: (2x)
e|---------------------------------------------------------|
B|---------------------------------------------------------|
G|-4-4-x-x-x-x-4-4-x-x-x-x-4-4-x-x-x-x-4-4-x-x-x-x-7--7--7-|
D|-4-4-x-x-x-x-4-4-x-x-x-x-4-4-x-x-x-x-4-4-x-x-x-x-7--7--7-|
A|-2-2-x-x-x-x-2-2-x-x-x-x-2-2-x-x-x-x-2-2-x-x-x-x-5--5--5-|       
E|---------------------------------------------------------|

(Agora a batida é muito veloz)
e|-0-0-0-0--0-0-0-0--0-0-0-0--0-0-0-0-|
B|-2-2-2-2--2-2-2-2--2-2-2-2--2-2-2-2-|
G|-2-2-2-2--2-2-2-2--2-2-2-2--2-2-2-2-|
D|-2-2-2-2--2-2-2-2--2-2-2-2--2-2-2-2-|
A|-0-0-0-0--0-0-0-0--0-0-0-0--0-0-0-0-|
E|-0-0-0-0--0-0-0-0--0-0-0-0--0-0-0-0-|

Repita o Riff 2:

Repita o Verso: (2x)

Riff 3:
e|--------------------------------------------------------------|
B|--------------------------------------------------------------|
G|----11----------11-------14-11-14-11-14-11--14-11-14-11-14-11-|
D|-9-----11--9-9-----11-9---------------------------------------|
A|--------------------------------------------------------------|
E|--------------------------------------------------------------|

Refrão:
      3 primeiros tempos:                 4° tempo:           
e|------------7-7-7-7-7-7-7-7-----| |------------7-7--7-7--|
B|--7-7-------7-7-7-7-7-7-7-7-----| |--7-7-------7-7--7-7--|
G|--7-7--6-6--8-8-8-8-8-8-8-8-----| |--7-7--6-6--8-8--8-8--|
D|--7-7--7-7--9-9-9-9-9-9-9-9-----| |--7-7--7-7--9-9--9-9--|
A|--5-5--7-7--9-9-9-9-9-9-9-9-----| |--5-5--7-7--9-9--9-9--|
E|-------5-5--7-7-7-7-7-7-7-7-----| |-------5-5--7-7--7-7--|

Repita o Riff 1:

Repita o Riff 2:

Repita o Verso: (2x)

Repita o Riff 3:

Repita o Refrão:

(Efeitos)

Repita a Intro: (Por 4 tempos)

Agora vem o Refrão um pouco modificado:
Os 4 tempos devem ser tocados desse jeito:                           
e|------------7-7-7-7-7-7-7-7-----| 
B|--7-7-------7-7-7-7-7-7-7-7-----| 
G|--7-7--6-6--8-8-8-8-8-8-8-8-----| 
D|--7-7--7-7--9-9-9-9-9-9-9-9-----| 
A|--5-5--7-7--9-9-9-9-9-9-9-9-----|
E|-------5-5--7-7-7-7-7-7-7-7-----| 

Repita o Refrão do primeiro jeito:


Enviada por Sem inscrição
Nº de acordes: 1