Pitty

Teto De Vidro

Pitty

3.561 exibições
Tom: G2
Intro: 

G1
   [C#m],[A],[B](4x)

Guitarra 1 (Base) volume mais alto
Guitarra 2 (Solo) volume mais baixo

afinado em [E]


G2
    
e|------19---16--------21---19---16---19---16-------------------------------|
B|-17-------------17----------------------------19---17---16/17---17--19----|
G|-----------------------------------------------------------------------18-|
D|--------------------------------------------------------------------------|
A|--------------------------------------------------------------------------|
E|--------------------------------------------------------------------------|

e|--------------------------------------------------------|
B|--------------------------------------------------------|
G|--6-6-6-6-6----6-6-6-6-6-----6-6-6-6-6-----6-6-6-6-6----|
D|- 6-6-6-6-6----6-6-6-6-6-----6-6-6-6-6-----6-6-6-6-6----|
A|--4-3-4-4-4----4-3-4-4-4-----4-3-4-4-4-----4-3-4-4-4----|
E|--------------------------------------------------------|


_Refrão:

G1
          [C#m]                                        [A]  [B]
 Quem não tem teto de vidro que atire a primeira pedraaaaa  (4x)


G2
  [C#] [A]   [B]   [C#]  [A]   [B]    
e|----19-------------21---19---|  (2x)
B|--------21b------------------|
G|-----------------------------|
D|-----------------------------|
A|-----------------------------|
E|-----------------------------|


_Verso:

G1

 [C#m] [C#m]                            [A] [A] 
 Andei por tantas ruas e lugares, Passei observando quase tudo
 [C#] [C#]                            [A] [A]  <--   (fica sem tocar depois dessa nota)
 Mudei o mundo, gira num segundo, Busquei dentro de mim os meus lares
 E aí, tantas pessoas querendo sentir, Sangue correndo na veia
 É bom assim, se movimenta está vivo, Ouvi milhões de vozes gritando...


G2

e|--------------------------------------------------------------|
B|--------------------------------------------------------------|
G|--6-6---------------------------------------------------------|
D|--6-6--6-6-6-6-4-4-4-4-----------7-7--------------------------|
A|--4-4------------------6-6-6-6---7-7--8-8-8-7-7-7-7-4-4-4-4---|
E|---------------------------------5-5--------------------------|
  Andei por tantas ruas e lugares, Passei observando quase tudo

e|--------------------------------------------------------------|
B|--------------------------------------------------------------|
G|--6-6------------6-4------------------------------------------|
D|--6-6--6-6-6-6-4-----6----7-7---------------------------------|
A|--4-4---------------------7-7---7-7-7-7-6-6-6-6-2/4-2---------|
E|--------------------------5-5---------------------------------|
  Mudei o mundo, gira num segundo, Busquei dentro de mim os meus lares

e|-----------------------------------------|--------------------------------------|
B|-----------------------------------------|--------------------------------------|
G|-----------------------------------------|----------------------------4-------5-|
D|---2~~---4~~--5~~---4-2-4--1-------------|--2~~---4~~---5~--4-2-4---4---4---5---|
A|-------------------------------3-3-3-----|------------------------2-------3-----|
E|-------------------------------------4~~-|--------------------------------------|
  E aí, tantas pessoas querendo sentir,    | É bom assim, se movimenta está vivo, 
  Sangue correndo na veia                  | Ouvi milhões de vozes gritando...


_Pós-Verso

    [C#m]    [B]      [A]      [B]      [C#m]    [B]      [F#]     [G#]
e|------9-------7-------5-------8-------9-------7-------2-------4---|
B|------------------------------------------------------------------|
G|----9---9---8---8---6---6---8---8---9---9---8---8---2---2---4---4-|
D|------------------------------------------------------------------|
A|------------------------------------------------------------------|
E|--9-------7-------5-------7-------9-------7-------2-------4-------|
  Eu quero ver quem é capaz, De fechar os olhos e descansar em paz


_Pré-Chorus : G1 + G2   
            
      [C#m],[A](2x)

   
__Repete: _Refrão, _Verso, _Pós-Verso


_Pré-Refrão 2: G1 + G2
    
      [C#m],[A](4x)


_Último Refrão:

G1

          [C#m]                                        [A]  [B]
 Quem não tem teto de vidro que atire a primeira pedraaaaa  

          [C#m]                                        [A]   
 Quem não tem teto de vidro que atire a primeira pedraaaaa

          [C#m]                                        [A]  [B]
 Quem não tem teto de vidro que atire a primeira pedraaaaa  

          [C#m]                                        [A]   [E] [D#]
 Quem não tem teto de vidro que atire a primeira pedraaaaa


G2
  [C#m] [A]   [B]  [C#m]  [A]   [B]   [C#m]  [A]   [B]  [C#m]  [A]   Eii [D#] ([C#]) <-- Da parte _Final
e|----19------------21---19-------19------------21------------------|  
B|--------21b--------------------------21b----------17--19b--------|
G|-------------------------------------------------------------18~~~-|
D|-------------------------------------------------------------------|
A|-------------------------------------------------------------------|
E|-------------------------------------------------------------------|


_Final: G1 ou G1 + G2

 [C#m]
 Na frente está o alvo que se arrisca pela linha
 [E]
 Não é tão diferente do que eu já fui um dia
 [B]
 Se vai ficar, se vai passar, não sei
 [A] 
 E num piscar de olhos, lembro o tanto que falei
 [C#m]
 deixei, calei e até me importei
 [E]
 Mas não tem nada, eu tava mesmo errada
 [B]
 Cada um em seu casulo, em sua direção
 [A]
 Vendo de camarote a novela da vida alheia
 [C#m]
 Sugerindo soluções, discutindo relações
 [E]
 Bem certos que a verdade cabe na palma da mão
 [B]                                 [A] 
 Mas isso não é uma questão de opinião
 [C#m]                                [E]
 Mas isso não é uma questão de opinião
 [B]                              [A] 
 E isso é só uma questão de opinião


Enviada por Sem inscrição
Nº de acordes: 10