Paramore

My Heart

Paramore

2.003 exibições
intro/refrão

guitar 1 (0:00)

E|--------------------------------------------------|
B|--------------------------------------------------|
G|--------6-----------------------------------------|
D|--2--7--6--6--7-----------------------------------|
A|--2--7--4--6--7-----------------------------------|
E|--0--5-----4--5-----------------------------------|


guitar 2 (0:00)

E|--4-4-4-7-2-2-2/4-4-4-4-4-4-----------------------|
B|--------------------------------------------------|
G|--------------------------------------------------|
D|--------------------------------------------------|
A|--------------------------------------------------|
E|--------------------------------------------------|

E|--7-4-4-2-2-2-7-7-7-7-7-7-------------------------|
B|--------------------------------------------------|
G|--------------------------------------------------|
D|--------------------------------------------------|
A|--------------------------------------------------|
E|--------------------------------------------------|

E|--4-4-4-7-2-2-2/4-4-4-4-4-4-----------------------|
B|--------------------------------------------------|
G|--------------------------------------------------|
D|--------------------------------------------------|
A|--------------------------------------------------|
E|--------------------------------------------------|

E|--7-4-4-2-2-2-0-----------------------------------|
B|--------------------------------------------------|
G|--------------------------------------------------|
D|--------------------------------------------------|
A|--------------------------------------------------|
E|--------------------------------------------------|


verso 1

guitar 1 (0:22)

E|--0--0--0--------------------------------------------|
B|--0--0--0--------------------------------------------|
G|--6--4--2--------------------------------------------|
D|--6--4--2--------------------------------------------|
A|--4--2--0--------------------------------------------|
E|-----------------------------------------------------|

guitar 2 (0:33)

E|-12-7-7-7-4-5-5-0----12-7-7-4-5-7-12--------------|
B|--------------------------------------------------|
G|--------------------------------------------------|
D|--------------------------------------------------|
A|--------------------------------------------------|
E|--------------------------------------------------|

refrão (0:54)

verso 2

guitar 1 (1:16)

E|--0--0--0--------------------------------------------|
B|--0--0--0--------------------------------------------|
G|--6--4--2--------------------------------------------|
D|--6--4--2--------------------------------------------|
A|--4--2--0--------------------------------------------|
E|-----------------------------------------------------|

guitar 2 (1:26)

E|--7-7-7-4-4-4-5-5-5-5-5-5-------------------------|
B|---5-5-5-5-5-5-5-5-5-5-5-5------------------------|
G|--------------------------------------------------|
D|--------------------------------------------------|
A|--------------------------------------------------|
E|--------------------------------------------------|

chorus (1:47)

bridge (2:16)


guitar 1 (2:10)

E|--------------------------------------------------|
B|--------------------------------------------------|
G|--9-----------------------------------------------|
D|--9-----------------------------------------------|
A|--7-----------------------------------------------|
E|--------------------------------------------------|

guitar 2 (2:11)

E|------7-------------------------------------------|
B|--9-7---7-9---------------------------------------|
G|--------------------------------------------------|
D|--------------------------------------------------|
A|--------------------------------------------------|
E|--------------------------------------------------|

breakdown

guitar 1 (2:39)   -    (2:42) play till the end

E|-----------------|--------------------------------|
B|-----------------|--------------------------------|
G|-----------------|-------6------------------------|
D|--7--9-----------|-------6--2--7--7--9------------|
A|--7--9-----------|-------4--2--7--7--9------------|
E|--5--7-----------|----------0--5--5--7------------|

guitar 2

E|--------------7-----------------------------------|
B|--9-7-9-7-9-7---7-9-------------------------------|
G|--------------------------------------------------|
D|--------------------------------------------------|
A|--------------------------------------------------|
E|--------------------------------------------------|

(3:22)
E|----------------------------------------------------|
B|--------------------9-9-9---------------------------|
G|--6-6-6-8-8-8-9-9-9--------6-6-6-8-8-8-9-9-9--------|
D|---------------------------------------------7-7-7--|
A|----------------------------------------------------|
E|----------------------------------------------------|

E|--11-(x8)--9-(x8)---------------------------------|
B|--------------------------------------------------|
G|--------------------------------------------------|
D|--------------------------------------------------|
A|--------------------------------------------------|
E|--------------------------------------------------|

guitar 1 termina.

E|--------------------------------------------------|
B|--------------------------------------------------|
G|--6-----------------------------------------------|
D|--6-----------------------------------------------|
A|--4-----------------------------------------------|
E|--------------------------------------------------|

INTRO/CHORUS
VERSO 1
REFRÃO
VERSO 2
REFRÃO
BRIDGE
BREAKDOWN


Enviada por Sem inscrição
Nº de acordes: 0