Paramore

Decoy

Paramore

546 exibições
ATENÇÃO!
Afinação: DADGBe
só tem uma guita, quem fizer a tab da outra guita, sinta-se a vontade em editar esta tab
obrigada ;D

(GUITA 1)
e|---------------------------------------------------------------------------|
B|---------------------------------------------------------------------------|
G|--------------10-10-10~--------------------10-10-10~-----------------------|
D|-5---8-8-8----x--x--x--------5-5-5--8-8-8--x--x--x-------------------------|
A|-5---8-8-8----8--8--8-~------5-5-5--8-8-8--8--8--8~------------------------|
D|-5---8-8-8-------------------5-5-5--8-8-8----------------------------------|

(GUITA 2)
e|---------------------------------------------------------------------------|
B|---------------------------------------------------------------------------|
G|---------------------------------------------------------------------------|
D|---------------------------------------------------------------------------|
A|---------------------------------------------------------------------------|
D|---------------------------------------------------------------------------|

(GUITA 1)
e|---------------------------------------------------------------------------|
B|---------------------------------------------------------------------------|
G|--------------10-10-10~--------------------10-10-10~-----------------------|
D|-5---8-8-8----x--x--x--------5-5-5--8-8-8--x--x--x-------------------------|
A|-5---8-8-8----8--8--8-~------5-5-5--8-8-8--8--8--8~------------------------|
D|-5---8-8-8-------------------5-5-5--8-8-8----------------------------------|

(GUITA 2)
e|---------------------------------------------------------------------------|
B|---------------------------------------------------------------------------|
G|---------------------------------------------------------------------------|
D|---------------------------------------------------------------------------|
A|---------------------------------------------------------------------------|
D|---------------------------------------------------------------------------|

(GUITA 1)
e|---------------------------------------------------------------------------|
B|---------------------------------------------------------------------------|
G|--------------10-10-10~--------------------10-10-10~-----------------------|
D|-5---8-8-8----x--x--x--------5-5-5--8-8-8--x--x--x-------------------------|
A|-5---8-8-8----8--8--8-~------5-5-5--8-8-8--8--8--8~------------------------|
D|-5---8-8-8-------------------5-5-5--8-8-8----------------------------------|

(GUITA 2)
e|---------------------------------------------------------------------------|
B|---------------------------------------------------------------------------|
G|---------------------------------------------------------------------------|
D|---------------------------------------------------------------------------|
A|---------------------------------------------------------------------------|
D|---------------------------------------------------------------------------|

e|---------------------------------------------------------------------------|
B|---------------------------------------------------------------------------|
G|--------------10-10-10~--------------------10-10-10~-----------------------|
D|-5---8-8-8----x--x--x--------5-5-5--8-8-8--x--x--x-------------------------|
A|-5---8-8-8----8--8--8-~------5-5-5--8-8-8--8--8--8~------------------------|
D|-5---8-8-8-------------------5-5-5--8-8-8----------------------------------|

(GUITA 2)
e|---------------------------------------------------------------------------|
B|---------------------------------------------------------------------------|
G|---------------------------------------------------------------------------|
D|---------------------------------------------------------------------------|
A|---------------------------------------------------------------------------|
D|---------------------------------------------------------------------------|

(GUITA 1)
e|---------------------------------------------------------------------------|
B|---------------------------------------------------------------------------|
G|---------------------------------------------------------------------------|
D|---------------------------------------------------------------------------|
A|---------------------------------------------------------------------------|
D|---------------------------------------------------------------------------|

 "close your eyes and make believe"
(GUITA 2)
e|-----------10-----10-------------8------8----------------------------------|
B|---------------------------------------------------------------------------|
G|------10-----10-------------10-----10--------------------------------------|
D|-12--------------------10--------------------------------------------------|
A|---------------------------------------------------------------------------|
D|---------------------------------------------------------------------------|

(GUITA 1)
e|---------------------------------------------------------------------------|
B|---------------------------------------------------------------------------|
G|---------------------------------------------------------------------------|
D|---------------------------------------------------------------------------|
A|---------------------------------------------------------------------------|
D|---------------------------------------------------------------------------|

 "forgetting all the memories"
(GUITA 2)
e|-----------10-----10-------------8------8----------------------------------|
B|---------------------------------------------------------------------------|
G|------10-----10-------------10-----10--------------------------------------|
D|-12--------------------10--------------------------------------------------|
A|---------------------------------------------------------------------------|
D|---------------------------------------------------------------------------|

(GUITA 1)
e|---------------------------------------------------------------------------|
B|---------------------------------------------------------------------------|
G|---------------------------------------------------------------------------|
D|---------------------------------------------------------------------------|
A|---------------------------------------------------------------------------|
D|---------------------------------------------------------------------------|

  "well hey hey baby"
(GUITA 2)
e|-----------10-----10-------------8------8----------------------------------|
B|---------------------------------------------------------------------------|
G|------10-----10-------------10-----10--------------------------------------|
D|-12--------------------10--------------------------------------------------|
A|---------------------------------------------------------------------------|
D|---------------------------------------------------------------------------|

(GUITA 1)
e|---------------------------------------------------------------------------|
B|---------------------------------------------------------------------------|
G|---------------------------------------------------------------------------|
D|---------------------------------------------------------------------------|
A|---------------------------------------------------------------------------|
D|---------------------------------------------------------------------------|

  "and ill be"
(GUITA 2)
e|-----------10-----10-------------8------8----------------------------------|
B|---------------------------------------------------------------------------|
G|------10-----10-------------10-----10--------------------------------------|
D|-12--------------------10--------------------------------------------------|
A|---------------------------------------------------------------------------|
D|---------------------------------------------------------------------------|


     "oh oh" etc.


(GUITA 1)         +FIND YOUR RYTHEM+
e|---------------------------------------------------------------------------|
B|---------------------------------------------------------------------------|
G|---------------------------------------------------------------------------|
D|-5-5-5-5-5-5-5-5-5-5-5-5-5-5-5-5----1-1-1-1-1-1-1-1-----3-3-3-3-3-3-3-3----|
A|-5-5-5-5-5-5-5-5-5-5-5-5-5-5-5-5----1-1-1-1-1-1-1-1-----3-3-3-3-3-3-3-3----|
D|-5-5-5-5-5-5-5-5-5-5-5-5-5-5-5-5----1-1-1-1-1-1-1-1-----3-3-3-3-3-3-3-3----|

 "youve never been so used as im using you"            "my little decoy"
(GUITA 2)
e|---------------------------------------------------------------------------|
B|---------------------------------------------------------------------------|
G|-12--12--12--12--12--12--12--12-s-15-12--12--12--12--12--12--12-12-10-10---|
D|---------------------------------------------------------------------------|
A|-10--10--10--10--10--10--10--10-s-13-10--10--10--10--10--10--10-10-8--8----|
D|---------------------------------------------------------------------------|

(GUITA 1)
e|---------------------------------------------------------------------------|
B|---------------------------------------------------------------------------|
G|---------------------------------------------------------------------------|
D|-5-5-5-5-5-5-5-5-5-5-5-5-5-5-5-5----1-1-1-1-1-1-1-1-----3-3-3-3-3-3-3-3----|
A|-5-5-5-5-5-5-5-5-5-5-5-5-5-5-5-5----1-1-1-1-1-1-1-1-----3-3-3-3-3-3-3-3----|
D|-5-5-5-5-5-5-5-5-5-5-5-5-5-5-5-5----1-1-1-1-1-1-1-1-----3-3-3-3-3-3-3-3----|

(GUITA 2)                                             "my little decoy"
e|---------------------------------------------------------------------------|
B|---------------------------------------------------------------------------|
G|-12--12--12--12--12--12--12--12-s-15--12--12--12--12--12--12--12-12-10-10--|
D|---------------------------------------------------------------------------|
A|-10--10--10--10--10--10--10--10-s-13--10--10--10--10--10--10--10-10-8--8---|
D|---------------------------------------------------------------------------|

(GUITA 1)
e|---------------------------------------------------------------------------|
B|---------------------------------------------------------------------------|
G|--------------10-10-10~--------------------10-10-10~-----------------------|
D|-5---8-8-8----x--x--x--------5-5-5--8-8-8--x--x--x-------------------------|
A|-5---8-8-8----8--8--8-~------5-5-5--8-8-8--8--8--8~------------------------|
D|-5---8-8-8-------------------5-5-5--8-8-8----------------------------------|

(GUITA 2)
e|---------------------------------------------------------------------------|
B|---------------------------------------------------------------------------|
G|---------------------------------------------------------------------------|
D|---------------------------------------------------------------------------|
A|---------------------------------------------------------------------------|
D|---------------------------------------------------------------------------|

(GUITA 1)
e|---------------------------------------------------------------------------|
B|---------------------------------------------------------------------------|
G|--------------10-10-10~--------------------10-10-10~-----------------------|
D|-5---8-8-8----x--x--x--------5-5-5--8-8-8--x--x--x-------------------------|
A|-5---8-8-8----8--8--8-~------5-5-5--8-8-8--8--8--8~------------------------|
D|-5---8-8-8-------------------5-5-5--8-8-8----------------------------------|

(GUITA 2)
e|---------------------------------------------------------------------------|
B|---------------------------------------------------------------------------|
G|---------------------------------------------------------------------------|
D|---------------------------------------------------------------------------|
A|---------------------------------------------------------------------------|
D|---------------------------------------------------------------------------|

(GUITA 1)
e|---------------------------------------------------------------------------|
B|---------------------------------------------------------------------------|
G|---------------------------------------------------------------------------|
D|---------------------------------------------------------------------------|
A|---------------------------------------------------------------------------|
D|---------------------------------------------------------------------------|

  "live your life and start a dream"
(GUITA 2)
e|-----------10-----10-------------8------8----------------------------------|
B|---------------------------------------------------------------------------|
G|------10-----10-------------10-----10--------------------------------------|
D|-12--------------------10--------------------------------------------------|
A|---------------------------------------------------------------------------|
D|---------------------------------------------------------------------------|

(GUITA 1)
e|---------------------------------------------------------------------------|
B|---------------------------------------------------------------------------|
G|---------------------------------------------------------------------------|
D|---------------------------------------------------------------------------|
A|---------------------------------------------------------------------------|
D|---------------------------------------------------------------------------|

  "forgetting all the memories" 
(GUITA 2)
e|-----------10-----10-------------8------8----------------------------------|
B|---------------------------------------------------------------------------|
G|------10-----10-------------10-----10--------------------------------------|
D|-12--------------------10--------------------------------------------------|
A|---------------------------------------------------------------------------|
D|---------------------------------------------------------------------------|

(GUITA 1)
e|---------------------------------------------------------------------------|
B|---------------------------------------------------------------------------|
G|---------------------------------------------------------------------------|
D|---------------------------------------------------------------------------|
A|---------------------------------------------------------------------------|
D|---------------------------------------------------------------------------|

  "well hey hey baby"
(GUITA 2)
e|-----------10-----10-------------8------8----------------------------------|
B|---------------------------------------------------------------------------|
G|------10-----10-------------10-----10--------------------------------------|
D|-12--------------------10--------------------------------------------------|
A|---------------------------------------------------------------------------|
D|---------------------------------------------------------------------------|

(GUITA 1)
e|---------------------------------------------------------------------------|
B|---------------------------------------------------------------------------|
G|---------------------------------------------------------------------------|
D|---------------------------------------------------------------------------|
A|---------------------------------------------------------------------------|
D|---------------------------------------------------------------------------|

  "well i cant stay"
(GUITA 2)
e|-----------10-----10-------------8------8----------------------------------|
B|---------------------------------------------------------------------------|
G|------10-----10-------------10-----10--------------------------------------|
D|-12--------------------10--------------------------------------------------|
A|---------------------------------------------------------------------------|
D|---------------------------------------------------------------------------|

    "oh oh" etc

(GUITA 1)
e|---------------------------------------------------------------------------|
B|---------------------------------------------------------------------------|
G|---------------------------------------------------------------------------|
D|-5-5-5-5-5-5-5-5-5-5-5-5-5-5-5-5----1-1-1-1-1-1-1-1-----3-3-3-3-3-3-3-3----|
A|-5-5-5-5-5-5-5-5-5-5-5-5-5-5-5-5----1-1-1-1-1-1-1-1-----3-3-3-3-3-3-3-3----|
D|-5-5-5-5-5-5-5-5-5-5-5-5-5-5-5-5----1-1-1-1-1-1-1-1-----3-3-3-3-3-3-3-3----|

 "youve never been so used as im using you"                 "my little decoy"
e|---------------------------------------------------------------------------|
B|---------------------------------------------------------------------------|
G|-12--12--12--12--12--12--12--12-s-15--12--12--12--12--12--12--12-12-10-10--|
D|---------------------------------------------------------------------------|
A|-10--10--10--10--10--10--10--10-s-13--10--10--10--10--10--10--10-10-8--8---|
D|---------------------------------------------------------------------------|

(GUITA 1)
e|---------------------------------------------------------------------------|
B|---------------------------------------------------------------------------|
G|---------------------------------------------------------------------------|
D|-5-5-5-5-5-5-5-5-5-5-5-5-5-5-5-5----1-1-1-1-1-1-1-1-----3-3-3-3-3-3-3-3----|
A|-5-5-5-5-5-5-5-5-5-5-5-5-5-5-5-5----1-1-1-1-1-1-1-1-----3-3-3-3-3-3-3-3----|
D|-5-5-5-5-5-5-5-5-5-5-5-5-5-5-5-5----1-1-1-1-1-1-1-1-----3-3-3-3-3-3-3-3----|

e|---------------------------------------------------------------------------|
B|---------------------------------------------------------------------------|
G|-12--12--12--12--12--12--12--12-s-15--12--12--12--12--12--12--12-12-10-10--|
D|---------------------------------------------------------------------------|
A|-10--10--10--10--10--10--10--10-s-13--10--10--10--10--10--10--10-10-8--8---|
D|---------------------------------------------------------------------------|

  "ah oh, ah oh" (não foi tirada esta parte ainda.. quem quiser, pode colocar)
e|---------------------------------------------------------------------------|
B|---------------------------------------------------------------------------|
G|---------------------------------------------------------------------------|
D|---------------------------------------------------------------------------|
A|---------------------------------------------------------------------------|
D|---------------------------------------------------------------------------|
                 (não foi tirada esta parte ainda.. quem quiser, pode colocar)
e|---------------------------------------------------------------------------|
B|---------------------------------------------------------------------------|
G|---------------------------------------------------------------------------|
D|---------------------------------------------------------------------------|
A|---------------------------------------------------------------------------|
D|---------------------------------------------------------------------------|
                 (não foi tirada esta parte ainda.. quem quiser, pode colocar)
e|---------------------------------------------------------------------------|
B|---------------------------------------------------------------------------|
G|---------------------------------------------------------------------------|
D|---------------------------------------------------------------------------|
A|---------------------------------------------------------------------------|
D|---------------------------------------------------------------------------|

(GUITA 1)
e|---------------------------------------------------------------------------|
B|---------------------------------------------------------------------------|
G|--------------10-10-10~--------------------10-10-10~-----------------------|
D|-5---8-8-8----x--x--x--------5-5-5--8-8-8--x--x--x-------------------------|
A|-5---8-8-8----8--8--8-~------5-5-5--8-8-8--8--8--8~------------------------|
D|-5---8-8-8-------------------5-5-5--8-8-8----------------------------------|

(GUITA 2)
e|---------------------------------------------------------------------------|
B|---------------------------------------------------------------------------|
G|---------------------------------------------------------------------------|
D|---------------------------------------------------------------------------|
A|---------------------------------------------------------------------------|
D|---------------------------------------------------------------------------|

(GUITA 1)
e|---------------------------------------------------------------------------|
B|---------------------------------------------------------------------------|
G|--------------10-10-10~--------------------10-10-10~-----------------------|
D|-5---8-8-8----x--x--x--------5-5-5--8-8-8--x--x--x-------------------------|
A|-5---8-8-8----8--8--8-~------5-5-5--8-8-8--8--8--8~------------------------|
D|-5---8-8-8-------------------5-5-5--8-8-8----------------------------------|

(GUITA 2)
e|---------------------------------------------------------------------------|
B|---------------------------------------------------------------------------|
G|---------------------------------------------------------------------------|
D|---------------------------------------------------------------------------|
A|---------------------------------------------------------------------------|
D|---------------------------------------------------------------------------|

(GUITA 1)     
e|---------------------------------------------------------------------------|
B|---------------------------------------------------------------------------|
G|--------------10-10-10~--------------------10-10-10~-----------------------|
D|-5---8-8-8----x--x--x--------5-5-5--8-8-8--x--x--x-------------------------|
A|-5---8-8-8----8--8--8-~------5-5-5--8-8-8--8--8--8~------------------------|
D|-5---8-8-8-------------------5-5-5--8-8-8----------------------------------|

(GUITA 2)
e|---------------------------------------------------------------------------|
B|---------------------------------------------------------------------------|
G|---------------------------------------------------------------------------|
D|---------------------------------------------------------------------------|
A|---------------------------------------------------------------------------|
D|---------------------------------------------------------------------------|

(GUITA 1)
e|---------------------------------------------------------------------------|
B|---------------------------------------------------------------------------|
G|--------------10-10-10~--------------------10-10-10~-----------------------|
D|-5---8-8-8----x--x--x--------5-5-5--8-8-8--x--x--x-------------------------|
A|-5---8-8-8----8--8--8-~------5-5-5--8-8-8--8--8--8~------------------------|
D|-5---8-8-8-------------------5-5-5--8-8-8----------------------------------|

(GUITA 2)
e|---------------------------------------------------------------------------|
B|---------------------------------------------------------------------------|
G|---------------------------------------------------------------------------|
D|---------------------------------------------------------------------------|
A|---------------------------------------------------------------------------|
D|---------------------------------------------------------------------------|

(GUITA 1)
e|---------------------------------------------------------------------------|
B|---------------------------------------------------------------------------|
G|--------------10-10-10~--------------------10-10-10~-----------------------|
D|-5---8-8-8----x--x--x--------5-5-5--8-8-8--x--x--x-------------------------|
A|-5---8-8-8----8--8--8-~------5-5-5--8-8-8--8--8--8~------------------------|
D|-5---8-8-8-------------------5-5-5--8-8-8----------------------------------|

(GUITA 2)
e|---------------------------------------------------------------------------|
B|---------------------------------------------------------------------------|
G|---------------------------------------------------------------------------|
D|---------------------------------------------------------------------------|
A|---------------------------------------------------------------------------|
D|---------------------------------------------------------------------------|

(GUITA 1)                                    "decoooooooooooooooooooooooooY"
e|---------------------------------------------------------------------------|
B|---------------------------------------------------------------------------|
G|--------------10-10-10~--------------------10-10-10~-----------------------|
D|-5---8-8-8----x--x--x--------5-5-5--8-8-8--x--x--x-------------------------|
A|-5---8-8-8----8--8--8-~------5-5-5--8-8-8--8--8--8~------------------------|
|-5---8-8-8-------------------5-5-5--8-8-8----------------------------------|

(GUITA 2)
e|---------------------------------------------------------------------------|
B|---------------------------------------------------------------------------|
G|---------------------------------------------------------------------------|
D|---------------------------------------------------------------------------|
A|---------------------------------------------------------------------------|
D|---------------------------------------------------------------------------|


Enviada por Sem inscrição
Nº de acordes: 0