Os Barões da Pisadinha

Esquema Preferido

Os Barões da Pisadinha

Compartilhar:

Tom: Dm

Intro: Dm  Bb  F  C
        Dm  Bb  F  C

E|-13-13-13-13-12------13-13-13-13-12----------|
B|----------------13------------------13-------|
G|---------------------------------------------|
D|---------------------------------------------|
A|---------------------------------------------|
E|---------------------------------------------|

E|-10-10-10-10-8----10-10-10-10-8--------------|
B|---------------------------------------------|
G|---------------10---------------10-----------|
D|---------------------------------------------|
A|---------------------------------------------|
E|---------------------------------------------|

E|---------------------------------------------|
B|-10-10-10-10-8---10-10-10-10-8-------------8-|
G|-------------------------------10-9-7-9-10---|
D|---------------10----------------------------|
A|---------------------------------------------|
E|---------------------------------------------|

Verso 1:
Dm
   Tá vendo aí
             Bb
Ela já tá falando 
           
Que tá com saudades
            F
Tá me procurando
         C
Daqui a pouco ela tá encostando
Dm
   Sabe que sou louco e sem coração
Bb
   Quando ela liga eu dou atenção
F           C
  Eu mando logo a localização
 Bb                        C
Hoje vai ter festa no colchão

Refrão:
     Dm
Ela roda a cidade inteira 
             Bb
Pra ficar comigo

Porque eu sou 
                    F
O seu esquema preferido
                         C
Eu sou seu esquema preferido

        Dm
Ela dispensa a balada
                       Bb
As amigas pra ficar comigo
 
Porque eu sou 
                    F
O seu esquema preferido
                         C
Eu sou seu esquema preferido

Solo: (Dm  Bb  F  C) 2x

E|-13-13-13-13-12------13-13-13-13-12----------|
B|----------------13------------------13-------|
G|---------------------------------------------|
D|---------------------------------------------|
A|---------------------------------------------|
E|---------------------------------------------|

E|-10-10-10-10-8----10-10-10-10-8--------------|
B|---------------------------------------------|
G|---------------10---------------10-----------|
D|---------------------------------------------|
A|---------------------------------------------|
E|---------------------------------------------|

E|---------------------------------------------|
B|-10-10-10-10-8---10-10-10-10-8-------------8-|
G|-------------------------------10-9-7-9-10---|
D|---------------10----------------------------|
A|---------------------------------------------|
E|---------------------------------------------|

Verso 2:
Dm
   Tá vendo aí
             Bb
Ela já tá falando 
           
Que tá com saudades
            F
Tá me procurando
         C
Daqui a pouco ela tá encostando
Dm
   Sabe que sou louco e sem coração
Bb
   Quando ela liga eu dou atenção
F           C
  Eu mando logo a localização
 Bb                        C
Hoje vai ter festa no colchão

Refrão:
     Dm
Ela roda a cidade inteira 
             Bb
Pra ficar comigo

Porque eu sou 
                    F
O seu esquema preferido
                         C
Eu sou seu esquema preferido

        Dm
Ela dispensa a balada
                       Bb
As amigas pra ficar comigo
 
Porque eu sou 
                    F
O seu esquema preferido
                         C
Eu sou seu esquema preferido

     Dm
Ela roda a cidade inteira 
             Bb
Pra ficar comigo

Porque eu sou 
                    F
O seu esquema preferido
                         C
Eu sou seu esquema preferido

        Dm
Ela dispensa a balada
                       Bb
As amigas pra ficar comigo
 
Porque eu sou 
                    F
O seu esquema preferido
                         C
Eu sou seu esquema preferido

Final: Dm  Bb  F  C
       Dm  Bb  F  C  Dm
  • Enviada por: Sem inscrição
  • Exibições: 220
  • Nº de acordes: 4