Nx Zero

Finja Entender

Nx Zero

868 exibições
Intro(entra com a bateria)

2x
----------------------------------------------------------------------------------
----------------------------------------------------------------------------------
----------------------------------------------------------------------------------
-1/12/5-55555-77777-88888-10-8-7-5-1111111111111111-3333333333333333333333--------

"Acordei com as mãos sujas de sangue..."VOZ 1

Fique esperto na entrada do baixo
2x
----------------------------------------------------------------------------------
-19-15-19-15----------------------------------------------------------------------
----------------------------------------------------------------------------------
----------------------------------------------------------------------------------

"Mas vem ver, o problema NÃO..."VOZ 2

----------------------------------------------------------------------------------
----------------------------------------------------------------------------------
----------------------------------------------------------------------------------
-1/12/5-55555-77777-88888-10-8-7-5-1111111111111111-3333333333333333333333--------

2x
----------------------------------------------------------------------------------
----------------------------------------------------------------------------------
--------------3/777777------------------------------------------------------------
-555555-333333--------111111------------------------------------------------------

"Finja entender..."PRE-REFRAO

----------------------------------------------------------------------------------
----------------------------------------------------------------------------------
--------------3/777777------------------------------------------------------------
-555555-333333--------111111------------------------------------------------------

----------------------------------------------------------------------------------
----------------------------------------------------------------------------------
--------------3/7777777777-888888888----------------------------------------------
-555555-333333-------------------------------------------------------------------- 

"E você,NÃO vê..."REFRAO

2x
-----------------------------------------------------------------------------------
-----------------------------------------------------------------------------------
-33333333333333--------------------------------------------------------------------
---------------33333333333333-3/12-5-3/12-5-111111111111---------------------------

"NÃO me orgulho, e nem aceito" VOZ 3
Só guitarra

"O que ontem fiz de errado"

-----------------------------------------------------------------------------------------------
-11-12-11-12-11-12-11-12-11-12-11-12-11-12-11-12-11-12-11-12-11-12-11-12-11-12-11-12-11-12-11-12
------------------------------------------------------------------------------------------------
------------------------------------------------------------------------------------------------

------------------------------------------------------------------------------------------------
-12-13-12-13-12-13-12-13-12-13-12-13-12-13-12-13-12-13-12-13-12-13-12-13-12-13-12-13-12-13-12-13
------------------------------------------------------------------------------------------------
------------------------------------------------------------------------------------------------

------------------------------------------------------------------------------------------------
-14-15-14-15-14-15-14-15-14-15-14-15-14-15-14-15-14-15-14-15-14-15-14-15-14-15-14-15-14-15-14-15
------------------------------------------------------------------------------------------------
------------------------------------------------------------------------------------------------

------------------------------------------------------------------------------------------------
-17-16-17-16-17-16-17-16-17-16-17-16-17-16-17-16-17-16-17-16-17-16-17-16-17-16-17-16-17-16-17-16
------------------------------------------------------------------------------------------------
------------------------------------------------------------------------------------------------

-----------------------------------------------------------------------------------------------
-11-12-11-12-11-12-11-12-11-12-11-12-11-12-11-12-11-12-11-12-11-12-11-12-11-12-11-12-11-12-11-12
------------------------------------------------------------------------------------------------
------------------------------------------------------------------------------------------------

------------------------------------------------------------------------------------------------
-12-13-12-13-12-13-12-13-12-13-12-13-12-13-12-13-12-13-12-13-12-13-12-13-12-13-12-13-12-13-12-13
------------------------------------------------------------------------------------------------
------------------------------------------------------------------------------------------------

------------------------------------------------------------------------------------------------
-14-15-14-15-14-15-14-15-14-15-14-15-14-15-14-15-14-15-14-15-14-15-14-15-14-15-14-15-14-15-14-15
------------------------------------------------------------------------------------------------
------------------------------------------------------------------------------------------------

------------------------------------------------------------------------------------------------
-17-16-17-16-17-16-17-16-17-16-17-16-17-16-17-16-17-16-17-16-17-16-17-16-17-16-17-16-17-16-17-16
------------------------------------------------------------------------------------------------
------------------------------------------------------------------------------------------------

"E você,NÃO vê..."REFRAO

2x
-----------------------------------------------------------------------------------
-----------------------------------------------------------------------------------
-33333333333333--------------------------------------------------------------------
---------------33333333333333-3/12-5-3/12-5-111111111111---------------------------


FINAL

----------------------------------------------------------------------------------
----------------------------------------------------------------------------------
----------------------------------------------------------------------------------
-1/12/5-55555-77777-88888-10-8-7-5-1111111111111111-3333333333333333333333-5------


Enviada por romeu
Nº de acordes: 0