Marilia Mendonça
Capotraste 2ª casa

Tom: Em

Intro: Em7  D  C  Em7  D  C

E|---3-2-0h2p0------------------------------|
B|-3-----------3----------------------------|
G|------------------------------------------|
D|------------------------------------------|
A|------------------------------------------|
E|------------------------------------------|

E|-3---3---2---2---0---0---0---0------------|
B|---3---3---3---3---3---3---3---3----------|
G|------------------------------------------|
D|------------------------------------------|
A|------------------------------------------|
E|------------------------------------------|

Verso 1:

(Violão Solo)

E|-3---3---2---2---0---0---0---0------------|
B|---3---3---3---3---3---3---3---3----------|
G|------------------------------------------|
D|------------------------------------------|
A|------------------------------------------|
E|------------------------------------------|

Em7             D          C
    Vou ser sincero com você
                     Em7
Acho que pra mim já deu
           D                 C
Faz um tempinho que não sou seu
                 Em7
Até a cama percebeu
         D         Am7
Que esfriou demais
          C
E seu toque não traz

Em7                     D
    Não adianta por graveto
                       C
Numa fogueira que não pega mais
                    D
Não pega mais, não pega mais

Refrão:
               C
Você virou saudade 
                G
Aqui dentro de casa
                        C
Se eu te chamo pro colchão
               G
Você foge pra sala
                  A7
E nem se importa mais saber 
           C
Do que eu sinto
                   D
Poucos metros quadrados
       C   G
Virou labirinto

               C
Você virou saudade 
                G
Aqui dentro de casa
                        C
Se eu te chamo pro colchão
               G
Você foge pra sala
                  A7
E nem se importa mais saber 
           C
Do que eu sinto
                   D
Poucos metros quadrados
       C   G
Virou labirinto

(C  G  C)

Verso 2:
Em7             D          C
    Vou ser sincero com você
                     Em7
Acho que pra mim já deu
           D                 C
Faz um tempinho que não sou seu
                 Em7
Até a cama percebeu
         D         Am7
Que esfriou demais
          C
E seu toque não traz

Em7                     D
    Não adianta por graveto
                       C
Numa fogueira que não pega mais
                    D
Não pega mais, não pega mais

Refrão:
               C
Você virou saudade 
                G
Aqui dentro de casa
                        C
Se eu te chamo pro colchão
               G
Você foge pra sala
                  A7
E nem se importa mais saber 
           C
Do que eu sinto
                   D
Poucos metros quadrados
       C   G
Virou labirinto

               C
Você virou saudade 
                G
Aqui dentro de casa
                        C
Se eu te chamo pro colchão
               G
Você foge pra sala
                  A7
E nem se importa mais saber 
           C
Do que eu sinto
                   D
Poucos metros quadrados
       C   G
Virou labirinto

Final: C  G  C  G
  • Enviada por: Sem inscrição
  • Exibições: 21.607
  • Nº de acordes: 7