Marilia Mendonça

Bem Pior Que Eu

Marilia Mendonça

Compartilhar:

Tom: F
Intro: F  G  Am7  G/B  C

e|---------------------------------------------------|
B|--------------8/10-8-------------------------------|
G|-7h9-7---------------------------------------------|
D|-------10-10----------10--10h12--10-10h12----------|
A|---------------------------------------------------|
E|---------------------------------------------------|

e|---------------------------------------------------|
B|---------------------------------------------------|
G|-9h10-9h10-9---------------------------------------|
D|--------------10-7/10------------------------------|
A|---------------------------------------------------|
E|---------------------------------------------------|

Verso 1:
 F           G
Mente e vai dar uma volta e vem me ver
Am          C
Entre uma briga e outra de vocês
F              G                     Am  G/B  C
Eu nem conheço ela, mas me sinto culpada

Pré-Refrão:
                 F              G
Primeiro que eu nem devia tá aqui
                 Am7              G/B   C
Segundo, cê não tinha que ligar pra mim
            F
Mas você ligou e eu atendi
    G                Am7   G/B  C
Eu penso não, mas falo sim

Refrão:
             F      G
Bem pior que eu, você
              Am7               G/B   C  
Que não deixa ela, e nem deixa de me ver
             F      G
Bem pior que eu, você
              Am7                 G/B   C
Desconta sua raiva em duas horas de prazer

             F      G
Bem pior que eu, você
              Am7               G/B   C  
Que não deixa ela, e nem deixa de me ver
             F      G
Bem pior que eu, você
              Am7                 G/B   C
Desconta sua raiva em duas horas de prazer

    F                                G
Eu venho porque eu não tenho nada a perder
      Am7  G/B  C
Já você

Solo: F  G  Am7  G/B  C

e|---------------------------------------------------|
B|--------------8/10-8-------------------------------|
G|-7h9-7---------------------------------------------|
D|-------10-10----------10--10h12--10-10h12----------|
A|---------------------------------------------------|
E|---------------------------------------------------|

e|---------------------------------------------------|
B|---------------------------------------------------|
G|-9h10-9h10-9---------------------------------------|
D|--------------10-7/10------------------------------|
A|---------------------------------------------------|
E|---------------------------------------------------|

Pré-Refrão:
                 F              G
Primeiro que eu nem devia tá aqui
                 Am7              G/B   C
Segundo, cê não tinha que ligar pra mim
            F
Mas você ligou e eu atendi
    G                Am7   G/B  C
Eu penso não, mas falo sim

Refrão:
             F      G
Bem pior que eu, você
              Am7               G/B   C  
Que não deixa ela, e nem deixa de me ver
             F      G
Bem pior que eu, você
              Am7                 G/B   C
Desconta sua raiva em duas horas de prazer

             F      G
Bem pior que eu, você
              Am7               G/B   C  
Que não deixa ela, e nem deixa de me ver
             F      G
Bem pior que eu, você
              Am7                 G/B   C
Desconta sua raiva em duas horas de prazer

    F                                G
Eu venho porque eu não tenho nada a perder
      Am7  G/B  C
Já você
    F                                G
Eu venho porque eu não tenho nada a perder
      Am 
Já você
  • Enviada por: Sem inscrição
  • Exibições: 12.840
  • Nº de acordes: 6