Legião Urbana

O Livro dos Dias

Legião Urbana

Compartilhar:

Tom: D  E
Intr. D  Em  F#m  Bm  Em  A  G

    D
Ausente o encanto antes cultivado
   Em
Percebo o mecanismo indiferente
         F#m
Que teima em resgatar sem confiança
        Bm
A essência do delito então sagrado
	  Em
Meu coração não quer deixar
Meu corpo descansar
   A
E teu desejo inverso é velho amigo
 G			            
Já que o tenho sempre a meu lado   Intro.

     D      Em      F#m      Bm      Em      A      G
e|------------------------3----|-----------------------------------|
B|--12--10--8--7--3-----5----5-|--12-10-12-10-12-15-13-12-15-13-12-|
G|--------------------4-----4--|-----------------------------------|
D|-----------------------------|-----------------------------------|
A|-----------------------------|-----------------------------------|
E|-----------------------------|-----------------------------------|

G		         A
Hoje então aceitas pelo nome
   D
O que perfeito entregas mas é tarde
  C
Só daria certo aos dois que tentam
  Em
Se ainda embriagado pela fome
  A
Exatos teu perdão e tua idade
     G					
O indulto a ti tomasse como bênção    Intro.


     D      Em      F#m      Bm      Em      A      G
e|------------------------3----|-----------------------------------|
B|--12--10--8--7--3-----5----5-|--12-10-12-10-12-15-13-12-15-13-12-|
G|--------------------4-----4--|-----------------------------------|
D|-----------------------------|-----------------------------------|
A|-----------------------------|-----------------------------------|
E|-----------------------------|-----------------------------------|


	E
Não esconda tristeza em mim
	   F#m
Todos se afastam quando o mundo está errado
		Abm>
Quando o que temos é um catálogo de erros
	      C#m
Quando precisamos de carinho
Força e cuidado
F#m
Este é o livro das flores
B
Este é o livro do destino
	A
Este é o livro de nossos dias
	E
Este é o dia dos nossos amores

e|--12--10--10--8--12--10--10--8-|
B|-------------------------------|
G|-------------------------------|
  • Enviada por: luca_cs
  • Exibições: 991
  • Nº de acordes: 14