Lauana Prado

Cobaia (part. Maiara E Maraisa)

Lauana Prado

327 exibições
Capotraste 1ª casa

Tom: Em

[Intro] Em  C9  D
        Em  C9  D

E|----------5/7-5--3p2------------------------------|
B|-1/3-3-3--------------5~--3/5-5--3-3-3\1--1-0-----|
G|----------------------------------------------2---|
D|--------------------------------------------------|
A|--------------------------------------------------|
E|--------------------------------------------------|

E|----------5/7-5--3p2------------------------------|
B|-1/3-3-3--------------5~--3/5-5--3-3-3\1--1-0-----|
G|----------------------------------------------2---|
D|--------------------------------------------------|
A|--------------------------------------------------|
E|--------------------------------------------------|

E|--------------------------------------------------|
B|-1/3--3/5-5-5--5/7--------------------------------|
G|--------------------------------------------------|
D|--------------------------------------------------|
A|--------------------------------------------------|
E|--------------------------------------------------|


[Primeira Parte]

G
 Você tem
                Em
Um emprego pra mim
Olha ai
                 D
Qualquer coisa que
     C           G          D
Que me mantenha perto de você
Posso fazer

G
 Cafuné no cabelo
                       Em
Vigio o seu sono, sei lá
Até provo o seu beijo
                                D
Pra ver se a barba vai me arranhar
    C9           G            D
Eu posso ser fiscal do seu olhar
Nem precisa pagar

[Pré-Refrão]

Am              C
  Pego sua toalha
                         G    D
Pra quando você sair do banho
Am                  C
  Posso ser a cobaia
                             G     D
Pra quando você fizer seus planos

[Refrão]

                       Em
Quando for beijar alguém
 C9                  D
Testa esse beijo em mim
                   Em
Antes de amar meu bem
 C9                 D
Testa esse amor em mim
                      Em
Quando for beijar alguém
 C9                  D
Testa esse beijo em mim
                   Em
Antes de amar meu bem
 C9                 D
Testa esse amor em mim

                            C
Me prenda, me abraça e não saia
  G                       D
Aceito esse emprego de cobaia
                            C
Me prenda, me abraça e não saia
  G                       D
Aceito esse emprego de cobaia

[Solo] Em  C9  D
       Em  C9  D

E|----------5/7-5--3p2------------------------------|
B|-1/3-3-3--------------5~--3/5-5--3-3-3\1--1-0-----|
G|----------------------------------------------2---|
D|--------------------------------------------------|
A|--------------------------------------------------|
E|--------------------------------------------------|

E|----------5/7-5--3p2------------------------------|
B|-1/3-3-3--------------5~--3/5-5--3-3-3\1--1-0-----|
G|----------------------------------------------2---|
D|--------------------------------------------------|
A|--------------------------------------------------|
E|--------------------------------------------------|

E|--------------------------------------------------|
B|-1/3--3/5-5-5--5/7--------------------------------|
G|--------------------------------------------------|
D|--------------------------------------------------|
A|--------------------------------------------------|
E|--------------------------------------------------|

[Pré-Refrão]

Am              C
  Pego sua toalha
                         G    D
Pra quando você sair do banho
Am                  C
  Posso ser a cobaia
                             G     D
Pra quando você fizer seus planos

[Refrão]

                       Em
Quando for beijar alguém
 C                   D
Testa esse beijo em mim
                   Em
Antes de amar meu bem
 C                  D
Testa esse amor em mim
                      Em
Quando for beijar alguém
 C                   D
Testa esse beijo em mim
                   Em
Antes de amar meu bem
 C                  D
Testa esse amor em mim

                            C
Me prenda, me abraça e não saia
  G                       D
Aceito esse emprego de cobaia
                            C
Me prenda, me abraça e não saia
  G                       D
Aceito esse emprego de cobaia

[Final] Em  C9  D  Em

E|----------5/7-5--3p2------------------------------|
B|-1/3-3-3--------------5~--3/5-5--3-3-3\1--1-0-----|
G|----------------------------------------------2---|
D|--------------------------------------------------|
A|--------------------------------------------------|
E|--------------------------------------------------|


Enviada por Sem inscrição
Nº de acordes: 6