Sem imagem

May 16th

Lagwagon

136 exibições
Intro: D - Bm - G - A

Guitarra solo Intro:
|-------------------------------------|
|-------------------------------------|
|-9-7-6-7--9-7-6-7--9-7-6-7--7-6-4-2--|
|-------------------------------------|
|-------------------------------------|
|-------------------------------------|

|--------------------------------------------------|
|--------------------------------------------------|
|-9-7-6-7-6-7--9-7-6-7--6-7--9-7-6-7-6-6--7-6-4-2--|
|--------------------------------------------------|
|--------------------------------------------------|
|--------------------------------------------------|

|-------------------------------------|
|----------------7---7------8p7-------|
|-----7----9--------------------9-7---|
|-7-7---7----7-7---7---7-7------------|
|-------------------------------------|
|-------------------------------------|
  
D               Bm
No more waiting on them,
D                      F#
As you rise inside new rooms,
(D C#m)G 
It's   official you've gone,
A
You can live for no one,
D             A             Bm
Else man, the guilt must be huge
D       C# G
There's no gain in failure,
A                    D
You succeed at being mine,
                  Bm
Yeah, old friend, see you there
D                    F#
I will be proud from afar,
D C#  G
I can paint a picture
A
In a moment of
D            A                B
Memories and there aren’t many left,
D C# G
I am extradited,
A 
Uninvited

D C#m Bm           B/Bb       G   A
       it’s just another Saturday

D - C#m - Bm - Bm/Bb - G - A

|-------------------------------------|----------------------------------|
|----------------7---7------8p7-------|-----------------7-----7-7--------|
|-----7----9--------------------9-7---|-----7-----9----------------9-7-6-|
|-7-7---7----7-7---7---7-7------------|-7-7---7-7---7-7---7-7------------|
|-------------------------------------|----------------------------------|
|-------------------------------------|----------------------------------|

D              Bm
Take a step to freedom,
D                               F#
You and her loathing this cruel world,
D    C# G                 A
Take a  breath of shelter and exhale,
D        A    B
Trust and allegiance
D C#m D                  A 
Li-be-rate yourself from hell


D C#m Bm           B/Bb       G   A
       it’s just another Saturday

D - C#m - Bm - Bm/Bb - G - A


Solo: D - Bm - G - A

e-------------------------------------------------|
B---3-3-3-3-3...----------------------------------|
G------------------------6-7~--9-7-6h7~--6~-------|
D-----------------7~-7-9---------------------9-7~-|
A-------------------------------------------------|
E-------------------------------------------------|

|--------------------------------------|
|--7-------------------------------7---|
|----7-------7-----6-7-6---9-7-6-7---9-|
|------9-7-9---8-9-------9-------------|
|--------------------------------------|
|--------------------------------------|

|-----------------------------------|-------------------|
|----------------7---7------8p7-----|-------------------|
|-----7----9--------------------9h7-|-----7----9-----7--|
|-7-7---7----7-7---7---7-7----------|-7-7---7----7-7----|
|-----------------------------------|-------------------|
|-----------------------------------|-------------------|


Enviada por Sem inscrição
Nº de acordes: 11