Kevin Devine

Me And My Friends

Kevin Devine

94 exibições
along with so enjoy!!!

Do not repost this tab as your own and steal the solo...I spent time figuring it out so 
be cheap and take credit for it!!!

The rhythm and strumming pattern is easy to figure out by ear so get comfortable with it 
have a good time playing!!!

Tabbed By - Keith Stenson  Email questions or comments to BCBOY*



      Me and my friends,    We dont incourage discipline.....
e--0---------------------0--------------------|
B--0---------------------2--------------------|
G--1---------------------2--------------------|
D--2---------------------2--------------------|
A--2---------------------0--------------------|
E--0------------------------------------------|

            I wanna stop it....
e--------0---------------------0--------------|
B--------0---------------------0--------------|
G--4-4-4-4---------------6-6-6-6--------------|
D--4-4-4-4---------------6-6-6-6--------------|
A--2-0-2-2---------------4-0-4-4--------------|
E---------------------------------------------|

     But its the only life I know how to live.
e---------------------------------------------|
B--2------------------------------------------|
G--2------------------------------------------|
D--2------------------------------------------|
A--0------------------------------------------|
E---------------------------------------------|

     Make a mess of what matters, give our good grace away...
e--0---------------------0--------------------|
B--0---------------------2--------------------|
G--1---------------------2--------------------|
D--2---------------------2--------------------|
A--2---------------------0--------------------|
E--0------------------------------------------|

            I wanna stop it....
e--------0---------------------0--------------|
B--------0---------------------0--------------|
G--4-4-4-4---------------6-6-6-6--------------|
D--4-4-4-4---------------6-6-6-6--------------|
A--2-0-2-2---------------4-0-4-4--------------|
E---------------------------------------------|

e---------------------------------------------|
B--2------------------------------------------|
G--2------------------------------------------|
D--2------------------------------------------|
A--0------------------------------------------|
E---------------------------------------------|

     But its the only life I know how to live.
e--0-----------------------------------------|
B--0-----------------------------------------|
G--1-----------------------------------------|
D--2-----------------------------------------|
A--2-----------------------------------------|
E--0-----------------------------------------|

 -SOLO-

e----------------------------------------------------|
B----2--4--5--7--9-----9-----9-----9-----9-----9-----|
G----------------------------------------------------|
D-------------------9-----9-----9-----9-----9-----9--|
A----4--6--7--9--------------------------------------|
E--0-------------0-----0-----0-----0-----0-----0-----|

e----------------------------------------------------|
B----2--4--5--7--9-----9-----9-----9-----9-----9-----|
G----------------------------------------------------|
D-------------------9-----9-----9-----9-----9-----9--|
A----4--6--7--9--------------------------------------|
E--0-------------9-----9-----9-----9-----9-----9-----|

e---------------------------------------------------------|
B----9---12--9---7--5-----5-----5-----7/9-\7--7-----7-----|
G---------------------------------------------------------|
D---------------------------------------------------------|
A----11--14--11--9-----7-----7-----7--9/11\9-----9-----9--|
E--9----------------5-----5-----5-------------7-----7-----|

e---------------------------------------------------------|
B-----7--12--10--9-----5-----5-----5-----5-----5----------|
G---------------------------------------------------------|
D---------------------------------------------------------|
A-----9--14--12--11-------7-----7-----7-----7-------------|
E--7-------------------0-----0-----0-----0-----0----------|

e----------------------------------------------------|
B----2--4--5--7--9-----9-----9-----9-----9-----9-----|
G----------------------------------------------------|
D-------------------9-----9-----9-----9-----9-----9--|
A----4--6--7--9--------------------------------------|
E--0-------------0-----0-----0-----0-----0-----0-----|

e----------------------------------------------------|
B----2--4--5--7--9-----9-----9-----9-----9-----9-----|
G----------------------------------------------------|
D-------------------9-----9-----9-----9-----9-----9--|
A----4--6--7--9--------------------------------------|
E--0-------------9-----9-----9-----9-----9-----9-----|

e---------------------------------------------------------|
B----9---12--9---7--5-----5-----5-----7/9-\7--7-----7-----|
G---------------------------------------------------------|
D---------------------------------------------------------|
A----11--14--11--9-----7-----7-----7--9/11\9-----9-----9--|
E--9----------------5-----5-----5-------------7-----7-----|

e---------------------------------------------------------|
B-----7--12--10--9-----5-----5-----5-----5-----5----------|
G---------------------------------------------------------|
D---------------------------------------------------------|
A-----9--14--12--11-------7-----7-----7-----7-------------|
E--7-------------------0-----0-----0-----0-----0----------|

            I wanna stop it.....
e--------0---------------------0--------------|
B--------0---------------------0--------------|
G--4-4-4-4---------------6-6-6-6--------------|
D--4-4-4-4---------------6-6-6-6--------------|
A--2-0-2-2---------------4-0-4-4--------------|
E---------------------------------------------|

     Let the smeared words spill out of the sides of our mouths....
e--0--------------------------------------------|
B--2--------------------------------------------|
G--2--------------------------------------------|
D--2--------------------------------------------|
A--0--------------------------------------------|
E-----------------------------------------------|

  But tonight brother pour me one more...
e------------------------------0---------------------0----|
B------------------------------0---------------------2----|
G------------------------------1---------------------2----|
D------------------------------2---------------------2----|
A------------------------------2---------------------0----|
E------------------------------0--------------------------|

          [End on]
e--0------------------------------------------|
B--0------------------------------------------|
G--1------------------------------------------|
D--2------------------------------------------|
A--2------------------------------------------|
E--0------------------------------------------|


Enviada por Sem inscrição
Nº de acordes: 0